  0
SECTION
  2
HEADER
  9
$ACADVER
  1
AC1012
  9
$DWGCODEPAGE
  3
ansi_932
  9
$INSBASE
 10
0.0
 20
0.0
 30
0.0
  9
$EXTMIN
 10
0.0
 20
0.0
 30
0.0
  9
$EXTMAX
 10
224.769001
 20
111.984
 30
0.0
  9
$LIMMIN
 10
0.0
 20
0.0
  9
$LIMMAX
 10
224.769001
 20
111.984
  9
$ORTHOMODE
 70
     0
  9
$REGENMODE
 70
     1
  9
$FILLMODE
 70
     1
  9
$QTEXTMODE
 70
     0
  9
$MIRRTEXT
 70
     1
  9
$DRAGMODE
 70
     2
  9
$LTSCALE
 40
1.0
  9
$OSMODE
 70
    37
  9
$ATTMODE
 70
     1
  9
$TEXTSIZE
 40
0.2
  9
$TRACEWID
 40
0.05
  9
$TEXTSTYLE
  7
ED_VECTOR
  9
$CLAYER
  8
0
  9
$CELTYPE
  6
BYLAYER
  9
$CECOLOR
 62
   256
  9
$CELTSCALE
 40
1.0
  9
$DELOBJ
 70
     1
  9
$DISPSILH
 70
     0
  9
$DIMSCALE
 40
1.0
  9
$DIMASZ
 40
3.0
  9
$DIMEXO
 40
1.0
  9
$DIMDLI
 40
10.0
  9
$DIMRND
 40
0.0
  9
$DIMDLE
 40
5.0
  9
$DIMEXE
 40
1.0
  9
$DIMTP
 40
0.0
  9
$DIMTM
 40
0.0
  9
$DIMTXT
 40
4.0
  9
$DIMCEN
 40
2.5
  9
$DIMTSZ
 40
0.0
  9
$DIMTOL
 70
     0
  9
$DIMLIM
 70
     0
  9
$DIMTIH
 70
     0
  9
$DIMTOH
 70
     0
  9
$DIMSE1
 70
     0
  9
$DIMSE2
 70
     0
  9
$DIMTAD
 70
     1
  9
$DIMZIN
 70
     8
  9
$DIMBLK
  1

  9
$DIMASO
 70
     1
  9
$DIMSHO
 70
     1
  9
$DIMPOST
  1

  9
$DIMAPOST
  1

  9
$DIMALT
 70
     0
  9
$DIMALTD
 70
     3
  9
$DIMALTF
 40
0.03937
  9
$DIMLFAC
 40
1.0
  9
$DIMTOFL
 70
     1
  9
$DIMTVP
 40
0.0
  9
$DIMTIX
 70
     0
  9
$DIMSOXD
 70
     0
  9
$DIMSAH
 70
     1
  9
$DIMBLK1
  1
EDTIP_ARROW_S
  9
$DIMBLK2
  1
EDTIP_ARROW_E
  9
$DIMSTYLE
  2
EDDIMINFO
  9
$DIMCLRD
 70
     7
  9
$DIMCLRE
 70
     7
  9
$DIMCLRT
 70
     7
  9
$DIMTFAC
 40
1.0
  9
$DIMGAP
 40
1.0
  9
$DIMJUST
 70
     0
  9
$DIMSD1
 70
     0
  9
$DIMSD2
 70
     0
  9
$DIMTOLJ
 70
     0
  9
$DIMTZIN
 70
     8
  9
$DIMALTZ
 70
     0
  9
$DIMALTTZ
 70
     0
  9
$DIMFIT
 70
     3
  9
$DIMUPT
 70
     0
  9
$DIMUNIT
 70
     2
  9
$DIMDEC
 70
     2
  9
$DIMTDEC
 70
     2
  9
$DIMALTU
 70
     2
  9
$DIMALTTD
 70
     3
  9
$DIMTXSTY
  7
ED_VECTOR
  9
$DIMAUNIT
 70
     0
  9
$LUNITS
 70
     2
  9
$LUPREC
 70
     4
  9
$SKETCHINC
 40
0.1
  9
$FILLETRAD
 40
0.5
  9
$AUNITS
 70
     0
  9
$AUPREC
 70
     0
  9
$MENU
  1
.
  9
$ELEVATION
 40
0.0
  9
$PELEVATION
 40
0.0
  9
$THICKNESS
 40
0.0
  9
$LIMCHECK
 70
     0
  9
$CHAMFERA
 40
0.5
  9
$CHAMFERB
 40
0.5
  9
$CHAMFERC
 40
1.0
  9
$CHAMFERD
 40
0.0
  9
$SKPOLY
 70
     0
  9
$TDCREATE
 40
2457282.772339884
  9
$TDUPDATE
 40
2457282.772339896
  9
$TDINDWG
 40
0.0000000116
  9
$TDUSRTIMER
 40
0.0000000116
  9
$USRTIMER
 70
     1
  9
$ANGBASE
 50
0.0
  9
$ANGDIR
 70
     0
  9
$PDMODE
 70
     0
  9
$PDSIZE
 40
0.0
  9
$PLINEWID
 40
0.0
  9
$COORDS
 70
     1
  9
$SPLFRAME
 70
     0
  9
$SPLINETYPE
 70
     6
  9
$SPLINESEGS
 70
     8
  9
$ATTDIA
 70
     0
  9
$ATTREQ
 70
     1
  9
$HANDLING
 70
     1
  9
$HANDSEED
  5
185
  9
$SURFTAB1
 70
     6
  9
$SURFTAB2
 70
     6
  9
$SURFTYPE
 70
     6
  9
$SURFU
 70
     6
  9
$SURFV
 70
     6
  9
$UCSNAME
  2

  9
$UCSORG
 10
0.0
 20
0.0
 30
0.0
  9
$UCSXDIR
 10
1.0
 20
0.0
 30
0.0
  9
$UCSYDIR
 10
0.0
 20
1.0
 30
0.0
  9
$PUCSNAME
  2

  9
$PUCSORG
 10
0.0
 20
0.0
 30
0.0
  9
$PUCSXDIR
 10
1.0
 20
0.0
 30
0.0
  9
$PUCSYDIR
 10
0.0
 20
1.0
 30
0.0
  9
$USERI1
 70
     0
  9
$USERI2
 70
     0
  9
$USERI3
 70
     0
  9
$USERI4
 70
     0
  9
$USERI5
 70
     0
  9
$USERR1
 40
0.0
  9
$USERR2
 40
0.0
  9
$USERR3
 40
0.0
  9
$USERR4
 40
0.0
  9
$USERR5
 40
0.0
  9
$WORLDVIEW
 70
     1
  9
$SHADEDGE
 70
     3
  9
$SHADEDIF
 70
    70
  9
$TILEMODE
 70
     1
  9
$MAXACTVP
 70
    64
  9
$PINSBASE
 10
0.0
 20
0.0
 30
0.0
  9
$PLIMCHECK
 70
     0
  9
$PEXTMIN
 10
1.000000E+20
 20
1.000000E+20
 30
1.000000E+20
  9
$PEXTMAX
 10
-1.000000E+20
 20
-1.000000E+20
 30
-1.000000E+20
  9
$PLIMMIN
 10
0.0
 20
0.0
  9
$PLIMMAX
 10
12.0
 20
9.0
  9
$UNITMODE
 70
     0
  9
$VISRETAIN
 70
     1
  9
$PLINEGEN
 70
     0
  9
$PSLTSCALE
 70
     1
  9
$TREEDEPTH
 70
  3020
  9
$PICKSTYLE
 70
     1
  9
$CMLSTYLE
  2
STANDARD
  9
$CMLJUST
 70
     0
  9
$CMLSCALE
 40
1.0
  9
$SAVEIMAGES
 70
     1
  0
ENDSEC
  0
SECTION
  2
CLASSES
  0
CLASS
  1
ACDBDICTIONARYWDFLT
  2
AcDbDictionaryWithDefault
  3
ObjectDBX Classes
 90
    32768
280
     0
281
     0
  0
CLASS
  1
XRECORD
  2
AcDbXrecord
  3
AutoCAD 2000
 90
    32768
280
     0
281
     0
  0
CLASS
  1
LWPOLYLINE
  2
AcDbPolyline
  3
AutoCAD 2000
 90
    32768
280
     0
281
     1
  0
CLASS
  1
HATCH
  2
AcDbHatch
  3
AutoCAD 2000
 90
    32768
280
     0
281
     1
  0
CLASS
  1
ACDBPLACEHOLDER
  2
AcDbPlaceHolder
  3
ObjectDBX Classes
 90
        0
280
     0
281
     0
  0
CLASS
  1
LAYOUT
  2
AcDbLayout
  3
ObjectDBX Classes
 90
        0
280
     0
281
     0
  0
ENDSEC
  0
SECTION
  2
TABLES
  0
TABLE
  2
VPORT
  5
8
330
0
100
AcDbSymbolTable
 70
     1
  0
VPORT
  5
29
330
8
100
AcDbSymbolTableRecord
100
AcDbViewportTableRecord
  2
*ACTIVE
 70
     0
 10
0.0
 20
0.0
 11
1.0
 21
1.0
 12
112.3845
 22
55.992
 13
0.0
 23
0.0
 14
0.5
 24
0.5
 15
0.5
 25
0.5
 16
0.0
 26
0.0
 36
1.0
 17
0.0
 27
0.0
 37
0.0
 40
111.984
 41
2.007153
 42
50.0
 43
0.0
 44
0.0
 50
0.0
 51
0.0
 71
     0
 72
   100
 73
     1
 74
     3
 75
     0
 76
     0
 77
     0
 78
     0
  0
ENDTAB
  0
TABLE
  2
LTYPE
  5
5
330
0
100
AcDbSymbolTable
 70
     5
  0
LTYPE
  5
14
330
5
100
AcDbSymbolTableRecord
100
AcDbLinetypeTableRecord
  2
BYBLOCK
 70
     0
  3

 72
    65
 73
     0
 40
0.0
  0
LTYPE
  5
15
330
5
100
AcDbSymbolTableRecord
100
AcDbLinetypeTableRecord
  2
BYLAYER
 70
     0
  3

 72
    65
 73
     0
 40
0.0
  0
LTYPE
  5
16
330
5
100
AcDbSymbolTableRecord
100
AcDbLinetypeTableRecord
  2
CONTINUOUS
 70
     0
  3
--------------------
 72
    65
 73
     0
 40
0.0
  0
LTYPE
  5
2A
330
5
100
AcDbSymbolTableRecord
100
AcDbLinetypeTableRecord
  2
DASHED
 70
     0
  3
- - - - - - - - - - -
 72
    65
 73
     2
 40
19.1
 49
12.7
 74
     0
 49
-6.4
 74
     0
  0
LTYPE
  5
2B
330
5
100
AcDbSymbolTableRecord
100
AcDbLinetypeTableRecord
  2
CENTER
 70
     0
  3
- ･ - ･ - ･ - ･ - ･ - ･ - ･ - ･ - ･ - ･ -
 72
    65
 73
     4
 40
51.0
 49
31.8
 74
     0
 49
-6.4
 74
     0
 49
6.4
 74
     0
 49
-6.4
 74
     0
  0
LTYPE
  5
2C
330
5
100
AcDbSymbolTableRecord
100
AcDbLinetypeTableRecord
  2
PHANTOM
 70
     0
  3
- ･ ･ - ･ ･ - ･ ･ - ･ ･ - ･ ･ - ･ ･ - ･ ･ - 
 72
    65
 73
     6
 40
63.8
 49
31.8
 74
     0
 49
-6.4
 74
     0
 49
6.4
 74
     0
 49
-6.4
 74
     0
 49
6.4
 74
     0
 49
-6.4
 74
     0
  0
LTYPE
  5
2D
330
5
100
AcDbSymbolTableRecord
100
AcDbLinetypeTableRecord
  2
DOT
 70
     0
  3
・・・・・・・・・・・・・・・
 72
    65
 73
     2
 40
6.5
 49
0.1
 74
     0
 49
-6.4
 74
     0
  0
ENDTAB
  0
TABLE
  2
LAYER
  5
2
330
0
100
AcDbSymbolTable
 70
    16
  0
LAYER
  5
10
330
2
100
AcDbSymbolTableRecord
100
AcDbLayerTableRecord
  2
0
 70
     0
 62
     7
  6
CONTINUOUS
  0
LAYER
  5
2E
330
2
100
AcDbSymbolTableRecord
100
AcDbLayerTableRecord
  2
CSLAYER2
 70
     0
 62
     7
  6
CONTINUOUS
  0
LAYER
  5
2F
330
2
100
AcDbSymbolTableRecord
100
AcDbLayerTableRecord
  2
CSLAYER3
 70
     0
 62
     7
  6
CONTINUOUS
  0
ENDTAB
  0
TABLE
  2
STYLE
  5
3
330
0
100
AcDbSymbolTable
 70
     2
  0
STYLE
  5
11
330
3
100
AcDbSymbolTableRecord
100
AcDbTextStyleTableRecord
  2
STANDARD
 70
     0
 40
0.0
 41
1.0
 50
0.0
 71
     0
 42
0.2
  3
txt
  4

  0
STYLE
  5
3D
330
3
100
AcDbSymbolTableRecord
100
AcDbTextStyleTableRecord
  2
ED_VECTOR
 70
     0
 40
0.0
 41
1.0
 50
0.0
 71
     0
 42
0.2
  3
MONOTXT.SHX
  4
BIGFONT.SHX
  0
ENDTAB
  0
TABLE
  2
VIEW
  5
6
330
0
100
AcDbSymbolTable
 70
     0
  0
ENDTAB
  0
TABLE
  2
UCS
  5
7
330
0
100
AcDbSymbolTable
 70
     0
  0
ENDTAB
  0
TABLE
  2
APPID
  5
9
330
0
100
AcDbSymbolTable
 70
     1
  0
APPID
  5
12
330
9
100
AcDbSymbolTableRecord
100
AcDbRegAppTableRecord
  2
ACAD
 70
     0
  0
ENDTAB
  0
TABLE
  2
DIMSTYLE
  5
A
330
0
100
AcDbSymbolTable
 70
     2
  0
DIMSTYLE
105
27
330
A
100
AcDbSymbolTableRecord
100
AcDbDimStyleTableRecord
  2
STANDARD
 70
     0
  3

  4

  5

  6

  7

 40
1.0
 41
0.18
 42
0.0625
 43
0.38
 44
0.18
 45
0.0
 46
0.0
 47
0.0
 48
0.0
140
0.18
141
0.09
142
0.0
143
25.4
144
1.0
145
0.0
146
1.0
147
0.09
 71
     0
 72
     0
 73
     1
 74
     1
 75
     0
 76
     0
 77
     0
 78
     0
170
     0
171
     2
172
     0
173
     0
174
     0
175
     0
176
     0
177
     0
178
     0
270
     2
271
     4
272
     4
273
     2
274
     2
340
11
275
     0
280
     0
281
     0
282
     0
283
     1
284
     0
285
     0
286
     0
287
     3
288
     0
  0
DIMSTYLE
105
6E
330
A
100
AcDbSymbolTableRecord
100
AcDbDimStyleTableRecord
  2
EDDIMINFO
 70
     0
  3

  4

  5

  6
EDTIP_ARROW_S
  7
EDTIP_ARROW_E
 40
1.0
 41
3.0
 42
1.0
 43
10.0
 44
1.0
 45
0.0
 46
5.0
 47
0.0
 48
0.0
140
4.0
141
2.5
142
0.0
143
0.03937
144
1.0
145
0.0
146
1.0
147
1.0
 71
     0
 72
     0
 73
     0
 74
     0
 75
     0
 76
     0
 77
     1
 78
     8
170
     0
171
     3
172
     1
173
     1
174
     0
175
     0
176
     7
177
     7
178
     7
179
     2
270
     2
271
     2
272
     2
273
     2
274
     3
340
3D
275
     0
280
     0
281
     0
282
     0
283
     0
284
     8
285
     0
286
     0
287
     3
288
     0
  0
ENDTAB
  0
TABLE
  2
BLOCK_RECORD
  5
1
330
0
100
AcDbSymbolTable
 70
    16
  0
BLOCK_RECORD
  5
1F
330
1
100
AcDbSymbolTableRecord
100
AcDbBlockTableRecord
  2
*MODEL_SPACE
  0
BLOCK_RECORD
  5
1B
330
1
100
AcDbSymbolTableRecord
100
AcDbBlockTableRecord
  2
*PAPER_SPACE
  0
BLOCK_RECORD
  5
3E
330
1
100
AcDbSymbolTableRecord
100
AcDbBlockTableRecord
  2
EDTIP_ARROW_S
  0
BLOCK_RECORD
  5
44
330
1
100
AcDbSymbolTableRecord
100
AcDbBlockTableRecord
  2
EDTIP_ARROW_E
  0
BLOCK_RECORD
  5
4A
330
1
100
AcDbSymbolTableRecord
100
AcDbBlockTableRecord
  2
EDTIP_BLACKDOT_S
  0
BLOCK_RECORD
  5
50
330
1
100
AcDbSymbolTableRecord
100
AcDbBlockTableRecord
  2
EDTIP_BLACKDOT_E
  0
BLOCK_RECORD
  5
56
330
1
100
AcDbSymbolTableRecord
100
AcDbBlockTableRecord
  2
EDTIP_ARCHITECT_S
  0
BLOCK_RECORD
  5
5C
330
1
100
AcDbSymbolTableRecord
100
AcDbBlockTableRecord
  2
EDTIP_ARCHITECT_E
  0
BLOCK_RECORD
  5
62
330
1
100
AcDbSymbolTableRecord
100
AcDbBlockTableRecord
  2
EDTIP_CIVIL_S
  0
BLOCK_RECORD
  5
68
330
1
100
AcDbSymbolTableRecord
100
AcDbBlockTableRecord
  2
EDTIP_CIVIL_E
  0
BLOCK_RECORD
  5
AB
330
1
100
AcDbSymbolTableRecord
100
AcDbBlockTableRecord
  2
BLKF011
  0
BLOCK_RECORD
  5
DE
330
1
100
AcDbSymbolTableRecord
100
AcDbBlockTableRecord
  2
BLKF012
  0
BLOCK_RECORD
  5
141
330
1
100
AcDbSymbolTableRecord
100
AcDbBlockTableRecord
  2
BLKF013
  0
BLOCK_RECORD
  5
14E
330
1
100
AcDbSymbolTableRecord
100
AcDbBlockTableRecord
  2
BLKF014
  0
BLOCK_RECORD
  5
15C
330
1
100
AcDbSymbolTableRecord
100
AcDbBlockTableRecord
  2
BLKF015
  0
BLOCK_RECORD
  5
168
330
1
100
AcDbSymbolTableRecord
100
AcDbBlockTableRecord
  2
BLKF016
  0
BLOCK_RECORD
  5
176
330
1
100
AcDbSymbolTableRecord
100
AcDbBlockTableRecord
  2
BLKF017
  0
ENDTAB
  0
ENDSEC
  0
SECTION
  2
BLOCKS
  0
BLOCK
  5
20
330
1F
100
AcDbEntity
  8
0
100
AcDbBlockBegin
  2
*MODEL_SPACE
 70
     0
 71
     0
 10
0.0
 20
0.0
 30
0.0
  3
*MODEL_SPACE
  1

  0
ENDBLK
  5
21
330
1F
100
AcDbEntity
  8
0
100
AcDbBlockEnd
  0
BLOCK
  5
1C
330
1B
100
AcDbEntity
 67
     1
  8
0
100
AcDbBlockBegin
  2
*PAPER_SPACE
 70
     0
 71
     0
 10
0.0
 20
0.0
 30
0.0
  3
*PAPER_SPACE
  1

  0
ENDBLK
  5
1D
330
1B
100
AcDbEntity
 67
     1
  8
0
100
AcDbBlockEnd
  0
BLOCK
  5
3F
330
3E
100
AcDbEntity
  8
0
100
AcDbBlockBegin
  2
EDTIP_ARROW_S
 70
     0
 71
     0
 10
0.0
 20
0.0
 30
0.0
  3
EDTIP_ARROW_S
  1

  0
LINE
  5
41
330
3E
100
AcDbEntity
  8
0
  6
CONTINUOUS
 62
     0
100
AcDbLine
 10
0.0
 20
0.0
 30
0.0
 11
-1.0
 21
0.0
 31
0.0
  0
LINE
  5
42
330
3E
100
AcDbEntity
  8
0
  6
CONTINUOUS
 62
     0
100
AcDbLine
 10
0.0
 20
0.0
 30
0.0
 11
-0.965926
 21
0.258819
 31
0.0
  0
LINE
  5
43
330
3E
100
AcDbEntity
  8
0
  6
CONTINUOUS
 62
     0
100
AcDbLine
 10
0.0
 20
0.0
 30
0.0
 11
-0.965926
 21
-0.258819
 31
0.0
  0
ENDBLK
  5
40
330
3E
100
AcDbEntity
  8
0
100
AcDbBlockEnd
  0
BLOCK
  5
45
330
44
100
AcDbEntity
  8
0
100
AcDbBlockBegin
  2
EDTIP_ARROW_E
 70
     0
 71
     0
 10
0.0
 20
0.0
 30
0.0
  3
EDTIP_ARROW_E
  1

  0
LINE
  5
47
330
44
100
AcDbEntity
  8
0
  6
CONTINUOUS
 62
     0
100
AcDbLine
 10
0.0
 20
0.0
 30
0.0
 11
-1.0
 21
0.0
 31
0.0
  0
LINE
  5
48
330
44
100
AcDbEntity
  8
0
  6
CONTINUOUS
 62
     0
100
AcDbLine
 10
0.0
 20
0.0
 30
0.0
 11
-0.965926
 21
-0.258819
 31
0.0
  0
LINE
  5
49
330
44
100
AcDbEntity
  8
0
  6
CONTINUOUS
 62
     0
100
AcDbLine
 10
0.0
 20
0.0
 30
0.0
 11
-0.965926
 21
0.258819
 31
0.0
  0
ENDBLK
  5
46
330
44
100
AcDbEntity
  8
0
100
AcDbBlockEnd
  0
BLOCK
  5
4B
330
4A
100
AcDbEntity
  8
0
100
AcDbBlockBegin
  2
EDTIP_BLACKDOT_S
 70
     0
 71
     0
 10
0.0
 20
0.0
 30
0.0
  3
EDTIP_BLACKDOT_S
  1

  0
LINE
  5
4D
330
4A
100
AcDbEntity
  8
0
  6
CONTINUOUS
 62
     0
100
AcDbLine
 10
0.0
 20
0.0
 30
0.0
 11
-1.0
 21
0.0
 31
0.0
  0
CIRCLE
  5
4E
330
4A
100
AcDbEntity
  8
0
  6
CONTINUOUS
 62
     0
100
AcDbCircle
 10
0.0
 20
0.0
 30
0.0
 40
0.5
  0
CIRCLE
  5
4F
330
4A
100
AcDbEntity
  8
0
  6
CONTINUOUS
 62
     0
100
AcDbCircle
 10
0.0
 20
0.0
 30
0.0
 40
0.25
  0
ENDBLK
  5
4C
330
4A
100
AcDbEntity
  8
0
100
AcDbBlockEnd
  0
BLOCK
  5
51
330
50
100
AcDbEntity
  8
0
100
AcDbBlockBegin
  2
EDTIP_BLACKDOT_E
 70
     0
 71
     0
 10
0.0
 20
0.0
 30
0.0
  3
EDTIP_BLACKDOT_E
  1

  0
LINE
  5
53
330
50
100
AcDbEntity
  8
0
  6
CONTINUOUS
 62
     0
100
AcDbLine
 10
0.0
 20
0.0
 30
0.0
 11
-1.0
 21
0.0
 31
0.0
  0
CIRCLE
  5
54
330
50
100
AcDbEntity
  8
0
  6
CONTINUOUS
 62
     0
100
AcDbCircle
 10
0.0
 20
0.0
 30
0.0
 40
0.5
  0
CIRCLE
  5
55
330
50
100
AcDbEntity
  8
0
  6
CONTINUOUS
 62
     0
100
AcDbCircle
 10
0.0
 20
0.0
 30
0.0
 40
0.25
  0
ENDBLK
  5
52
330
50
100
AcDbEntity
  8
0
100
AcDbBlockEnd
  0
BLOCK
  5
57
330
56
100
AcDbEntity
  8
0
100
AcDbBlockBegin
  2
EDTIP_ARCHITECT_S
 70
     0
 71
     0
 10
0.0
 20
0.0
 30
0.0
  3
EDTIP_ARCHITECT_S
  1

  0
LINE
  5
59
330
56
100
AcDbEntity
  8
0
  6
CONTINUOUS
 62
     0
100
AcDbLine
 10
0.0
 20
0.0
 30
0.0
 11
-1.0
 21
0.0
 31
0.0
  0
LINE
  5
5A
330
56
100
AcDbEntity
  8
0
  6
CONTINUOUS
 62
     0
100
AcDbLine
 10
0.0
 20
0.0
 30
0.0
 11
-0.707107
 21
-0.707107
 31
0.0
  0
LINE
  5
5B
330
56
100
AcDbEntity
  8
0
  6
CONTINUOUS
 62
     0
100
AcDbLine
 10
0.0
 20
0.0
 30
0.0
 11
0.707107
 21
0.707107
 31
0.0
  0
ENDBLK
  5
58
330
56
100
AcDbEntity
  8
0
100
AcDbBlockEnd
  0
BLOCK
  5
5D
330
5C
100
AcDbEntity
  8
0
100
AcDbBlockBegin
  2
EDTIP_ARCHITECT_E
 70
     0
 71
     0
 10
0.0
 20
0.0
 30
0.0
  3
EDTIP_ARCHITECT_E
  1

  0
LINE
  5
5F
330
5C
100
AcDbEntity
  8
0
  6
CONTINUOUS
 62
     0
100
AcDbLine
 10
0.0
 20
0.0
 30
0.0
 11
-1.0
 21
0.0
 31
0.0
  0
LINE
  5
60
330
5C
100
AcDbEntity
  8
0
  6
CONTINUOUS
 62
     0
100
AcDbLine
 10
0.0
 20
0.0
 30
0.0
 11
-0.707107
 21
-0.707107
 31
0.0
  0
LINE
  5
61
330
5C
100
AcDbEntity
  8
0
  6
CONTINUOUS
 62
     0
100
AcDbLine
 10
0.0
 20
0.0
 30
0.0
 11
0.707107
 21
0.707107
 31
0.0
  0
ENDBLK
  5
5E
330
5C
100
AcDbEntity
  8
0
100
AcDbBlockEnd
  0
BLOCK
  5
63
330
62
100
AcDbEntity
  8
0
100
AcDbBlockBegin
  2
EDTIP_CIVIL_S
 70
     0
 71
     0
 10
0.0
 20
0.0
 30
0.0
  3
EDTIP_CIVIL_S
  1

  0
LINE
  5
65
330
62
100
AcDbEntity
  8
0
  6
CONTINUOUS
 62
     0
100
AcDbLine
 10
0.0
 20
0.0
 30
0.0
 11
-1.0
 21
0.0
 31
0.0
  0
LINE
  5
66
330
62
100
AcDbEntity
  8
0
  6
CONTINUOUS
 62
     0
100
AcDbLine
 10
0.0
 20
-0.083333
 30
0.0
 11
-1.0
 21
-0.083333
 31
0.0
  0
LINE
  5
67
330
62
100
AcDbEntity
  8
0
  6
CONTINUOUS
 62
     0
100
AcDbLine
 10
0.0
 20
-0.166667
 30
0.0
 11
-1.0
 21
-0.166667
 31
0.0
  0
ENDBLK
  5
64
330
62
100
AcDbEntity
  8
0
100
AcDbBlockEnd
  0
BLOCK
  5
69
330
68
100
AcDbEntity
  8
0
100
AcDbBlockBegin
  2
EDTIP_CIVIL_E
 70
     0
 71
     0
 10
0.0
 20
0.0
 30
0.0
  3
EDTIP_CIVIL_E
  1

  0
LINE
  5
6B
330
68
100
AcDbEntity
  8
0
  6
CONTINUOUS
 62
     0
100
AcDbLine
 10
0.0
 20
0.0
 30
0.0
 11
-1.0
 21
0.0
 31
0.0
  0
LINE
  5
6C
330
68
100
AcDbEntity
  8
0
  6
CONTINUOUS
 62
     0
100
AcDbLine
 10
0.0
 20
0.083333
 30
0.0
 11
-1.0
 21
0.083333
 31
0.0
  0
LINE
  5
6D
330
68
100
AcDbEntity
  8
0
  6
CONTINUOUS
 62
     0
100
AcDbLine
 10
0.0
 20
0.166667
 30
0.0
 11
-1.0
 21
0.166667
 31
0.0
  0
ENDBLK
  5
6A
330
68
100
AcDbEntity
  8
0
100
AcDbBlockEnd
  0
BLOCK
  5
AC
330
AB
100
AcDbEntity
  8
0
100
AcDbBlockBegin
  2
BLKF011
 70
     0
 71
     0
 10
0.0
 20
0.0
 30
0.0
  3
BLKF011
  1

  0
LINE
  5
AF
330
AB
100
AcDbEntity
  8
CSLAYER2
  6
CONTINUOUS
 62
     7
100
AcDbLine
 10
131.869
 20
85.90268
 30
0.0
 11
131.867097
 21
85.969675
 31
0.0
  0
LINE
  5
B0
330
AB
100
AcDbEntity
  8
CSLAYER2
  6
CONTINUOUS
 62
     7
100
AcDbLine
 10
131.867097
 20
85.969675
 30
0.0
 11
131.861404
 21
86.03616
 31
0.0
  0
LINE
  5
B1
330
AB
100
AcDbEntity
  8
CSLAYER2
  6
CONTINUOUS
 62
     7
100
AcDbLine
 10
131.861404
 20
86.03616
 30
0.0
 11
131.851963
 21
86.101629
 31
0.0
  0
LINE
  5
B2
330
AB
100
AcDbEntity
  8
CSLAYER2
  6
CONTINUOUS
 62
     7
100
AcDbLine
 10
131.851963
 20
86.101629
 30
0.0
 11
131.838846
 21
86.165584
 31
0.0
  0
LINE
  5
B3
330
AB
100
AcDbEntity
  8
CSLAYER2
  6
CONTINUOUS
 62
     7
100
AcDbLine
 10
131.838846
 20
86.165584
 30
0.0
 11
131.822154
 21
86.227538
 31
0.0
  0
LINE
  5
B4
330
AB
100
AcDbEntity
  8
CSLAYER2
  6
CONTINUOUS
 62
     7
100
AcDbLine
 10
131.822154
 20
86.227538
 30
0.0
 11
131.802013
 21
86.28702
 31
0.0
  0
LINE
  5
B5
330
AB
100
AcDbEntity
  8
CSLAYER2
  6
CONTINUOUS
 62
     7
100
AcDbLine
 10
131.802013
 20
86.28702
 30
0.0
 11
131.778576
 21
86.343577
 31
0.0
  0
LINE
  5
B6
330
AB
100
AcDbEntity
  8
CSLAYER2
  6
CONTINUOUS
 62
     7
100
AcDbLine
 10
131.778576
 20
86.343577
 30
0.0
 11
131.752022
 21
86.396778
 31
0.0
  0
LINE
  5
B7
330
AB
100
AcDbEntity
  8
CSLAYER2
  6
CONTINUOUS
 62
     7
100
AcDbLine
 10
131.752022
 20
86.396778
 30
0.0
 11
131.722553
 21
86.446219
 31
0.0
  0
LINE
  5
B8
330
AB
100
AcDbEntity
  8
CSLAYER2
  6
CONTINUOUS
 62
     7
100
AcDbLine
 10
131.722553
 20
86.446219
 30
0.0
 11
131.690394
 21
86.491523
 31
0.0
  0
LINE
  5
B9
330
AB
100
AcDbEntity
  8
CSLAYER2
  6
CONTINUOUS
 62
     7
100
AcDbLine
 10
131.690394
 20
86.491523
 30
0.0
 11
131.655788
 21
86.532346
 31
0.0
  0
LINE
  5
BA
330
AB
100
AcDbEntity
  8
CSLAYER2
  6
CONTINUOUS
 62
     7
100
AcDbLine
 10
131.655788
 20
86.532346
 30
0.0
 11
131.619
 21
86.568376
 31
0.0
  0
LINE
  5
BB
330
AB
100
AcDbEntity
  8
CSLAYER2
  6
CONTINUOUS
 62
     7
100
AcDbLine
 10
131.619
 20
86.568376
 30
0.0
 11
131.580309
 21
86.599341
 31
0.0
  0
LINE
  5
BC
330
AB
100
AcDbEntity
  8
CSLAYER2
  6
CONTINUOUS
 62
     7
100
AcDbLine
 10
131.580309
 20
86.599341
 30
0.0
 11
131.54001
 21
86.625003
 31
0.0
  0
LINE
  5
BD
330
AB
100
AcDbEntity
  8
CSLAYER2
  6
CONTINUOUS
 62
     7
100
AcDbLine
 10
131.54001
 20
86.625003
 30
0.0
 11
131.49841
 21
86.645168
 31
0.0
  0
LINE
  5
BE
330
AB
100
AcDbEntity
  8
CSLAYER2
  6
CONTINUOUS
 62
     7
100
AcDbLine
 10
131.49841
 20
86.645168
 30
0.0
 11
131.455824
 21
86.659682
 31
0.0
  0
LINE
  5
BF
330
AB
100
AcDbEntity
  8
CSLAYER2
  6
CONTINUOUS
 62
     7
100
AcDbLine
 10
131.455824
 20
86.659682
 30
0.0
 11
131.412578
 21
86.668435
 31
0.0
  0
LINE
  5
C0
330
AB
100
AcDbEntity
  8
CSLAYER2
  6
CONTINUOUS
 62
     7
100
AcDbLine
 10
131.412578
 20
86.668435
 30
0.0
 11
131.369
 21
86.67136
 31
0.0
  0
LINE
  5
C1
330
AB
100
AcDbEntity
  8
CSLAYER2
  6
CONTINUOUS
 62
     7
100
AcDbLine
 10
131.369
 20
86.67136
 30
0.0
 11
131.325422
 21
86.668435
 31
0.0
  0
LINE
  5
C2
330
AB
100
AcDbEntity
  8
CSLAYER2
  6
CONTINUOUS
 62
     7
100
AcDbLine
 10
131.325422
 20
86.668435
 30
0.0
 11
131.282176
 21
86.659682
 31
0.0
  0
LINE
  5
C3
330
AB
100
AcDbEntity
  8
CSLAYER2
  6
CONTINUOUS
 62
     7
100
AcDbLine
 10
131.282176
 20
86.659682
 30
0.0
 11
131.23959
 21
86.645168
 31
0.0
  0
LINE
  5
C4
330
AB
100
AcDbEntity
  8
CSLAYER2
  6
CONTINUOUS
 62
     7
100
AcDbLine
 10
131.23959
 20
86.645168
 30
0.0
 11
131.19799
 21
86.625003
 31
0.0
  0
LINE
  5
C5
330
AB
100
AcDbEntity
  8
CSLAYER2
  6
CONTINUOUS
 62
     7
100
AcDbLine
 10
131.19799
 20
86.625003
 30
0.0
 11
131.157691
 21
86.599341
 31
0.0
  0
LINE
  5
C6
330
AB
100
AcDbEntity
  8
CSLAYER2
  6
CONTINUOUS
 62
     7
100
AcDbLine
 10
131.157691
 20
86.599341
 30
0.0
 11
131.119
 21
86.568376
 31
0.0
  0
LINE
  5
C7
330
AB
100
AcDbEntity
  8
CSLAYER2
  6
CONTINUOUS
 62
     7
100
AcDbLine
 10
131.119
 20
86.568376
 30
0.0
 11
131.082212
 21
86.532346
 31
0.0
  0
LINE
  5
C8
330
AB
100
AcDbEntity
  8
CSLAYER2
  6
CONTINUOUS
 62
     7
100
AcDbLine
 10
131.082212
 20
86.532346
 30
0.0
 11
131.047606
 21
86.491523
 31
0.0
  0
LINE
  5
C9
330
AB
100
AcDbEntity
  8
CSLAYER2
  6
CONTINUOUS
 62
     7
100
AcDbLine
 10
131.047606
 20
86.491523
 30
0.0
 11
131.015447
 21
86.446219
 31
0.0
  0
LINE
  5
CA
330
AB
100
AcDbEntity
  8
CSLAYER2
  6
CONTINUOUS
 62
     7
100
AcDbLine
 10
131.015447
 20
86.446219
 30
0.0
 11
130.985978
 21
86.396778
 31
0.0
  0
LINE
  5
CB
330
AB
100
AcDbEntity
  8
CSLAYER2
  6
CONTINUOUS
 62
     7
100
AcDbLine
 10
130.985978
 20
86.396778
 30
0.0
 11
130.959424
 21
86.343577
 31
0.0
  0
LINE
  5
CC
330
AB
100
AcDbEntity
  8
CSLAYER2
  6
CONTINUOUS
 62
     7
100
AcDbLine
 10
130.959424
 20
86.343577
 30
0.0
 11
130.935987
 21
86.28702
 31
0.0
  0
LINE
  5
CD
330
AB
100
AcDbEntity
  8
CSLAYER2
  6
CONTINUOUS
 62
     7
100
AcDbLine
 10
130.935987
 20
86.28702
 30
0.0
 11
130.915846
 21
86.227538
 31
0.0
  0
LINE
  5
CE
330
AB
100
AcDbEntity
  8
CSLAYER2
  6
CONTINUOUS
 62
     7
100
AcDbLine
 10
130.915846
 20
86.227538
 30
0.0
 11
130.899154
 21
86.165584
 31
0.0
  0
LINE
  5
CF
330
AB
100
AcDbEntity
  8
CSLAYER2
  6
CONTINUOUS
 62
     7
100
AcDbLine
 10
130.899154
 20
86.165584
 30
0.0
 11
130.886037
 21
86.101629
 31
0.0
  0
LINE
  5
D0
330
AB
100
AcDbEntity
  8
CSLAYER2
  6
CONTINUOUS
 62
     7
100
AcDbLine
 10
130.886037
 20
86.101629
 30
0.0
 11
130.876596
 21
86.03616
 31
0.0
  0
LINE
  5
D1
330
AB
100
AcDbEntity
  8
CSLAYER2
  6
CONTINUOUS
 62
     7
100
AcDbLine
 10
130.876596
 20
86.03616
 30
0.0
 11
130.870903
 21
85.969675
 31
0.0
  0
LINE
  5
D2
330
AB
100
AcDbEntity
  8
CSLAYER2
  6
CONTINUOUS
 62
     7
100
AcDbLine
 10
130.870903
 20
85.969675
 30
0.0
 11
130.869
 21
85.90268
 31
0.0
  0
ENDBLK
  5
AD
330
AB
100
AcDbEntity
  8
0
100
AcDbBlockEnd
  0
BLOCK
  5
DF
330
DE
100
AcDbEntity
  8
0
100
AcDbBlockBegin
  2
BLKF012
 70
     0
 71
     0
 10
0.0
 20
0.0
 30
0.0
  3
BLKF012
  1

  0
LINE
  5
E2
330
DE
100
AcDbEntity
  8
CSLAYER2
  6
CONTINUOUS
 62
     7
100
AcDbLine
 10
130.869
 20
68.06532
 30
0.0
 11
130.870903
 21
67.998325
 31
0.0
  0
LINE
  5
E3
330
DE
100
AcDbEntity
  8
CSLAYER2
  6
CONTINUOUS
 62
     7
100
AcDbLine
 10
130.870903
 20
67.998325
 30
0.0
 11
130.876596
 21
67.93184
 31
0.0
  0
LINE
  5
E4
330
DE
100
AcDbEntity
  8
CSLAYER2
  6
CONTINUOUS
 62
     7
100
AcDbLine
 10
130.876596
 20
67.93184
 30
0.0
 11
130.886037
 21
67.866371
 31
0.0
  0
LINE
  5
E5
330
DE
100
AcDbEntity
  8
CSLAYER2
  6
CONTINUOUS
 62
     7
100
AcDbLine
 10
130.886037
 20
67.866371
 30
0.0
 11
130.899154
 21
67.802416
 31
0.0
  0
LINE
  5
E6
330
DE
100
AcDbEntity
  8
CSLAYER2
  6
CONTINUOUS
 62
     7
100
AcDbLine
 10
130.899154
 20
67.802416
 30
0.0
 11
130.915846
 21
67.740462
 31
0.0
  0
LINE
  5
E7
330
DE
100
AcDbEntity
  8
CSLAYER2
  6
CONTINUOUS
 62
     7
100
AcDbLine
 10
130.915846
 20
67.740462
 30
0.0
 11
130.935987
 21
67.68098
 31
0.0
  0
LINE
  5
E8
330
DE
100
AcDbEntity
  8
CSLAYER2
  6
CONTINUOUS
 62
     7
100
AcDbLine
 10
130.935987
 20
67.68098
 30
0.0
 11
130.959424
 21
67.624423
 31
0.0
  0
LINE
  5
E9
330
DE
100
AcDbEntity
  8
CSLAYER2
  6
CONTINUOUS
 62
     7
100
AcDbLine
 10
130.959424
 20
67.624423
 30
0.0
 11
130.985978
 21
67.571222
 31
0.0
  0
LINE
  5
EA
330
DE
100
AcDbEntity
  8
CSLAYER2
  6
CONTINUOUS
 62
     7
100
AcDbLine
 10
130.985978
 20
67.571222
 30
0.0
 11
131.015447
 21
67.521781
 31
0.0
  0
LINE
  5
EB
330
DE
100
AcDbEntity
  8
CSLAYER2
  6
CONTINUOUS
 62
     7
100
AcDbLine
 10
131.015447
 20
67.521781
 30
0.0
 11
131.047606
 21
67.476477
 31
0.0
  0
LINE
  5
EC
330
DE
100
AcDbEntity
  8
CSLAYER2
  6
CONTINUOUS
 62
     7
100
AcDbLine
 10
131.047606
 20
67.476477
 30
0.0
 11
131.082212
 21
67.435654
 31
0.0
  0
LINE
  5
ED
330
DE
100
AcDbEntity
  8
CSLAYER2
  6
CONTINUOUS
 62
     7
100
AcDbLine
 10
131.082212
 20
67.435654
 30
0.0
 11
131.119
 21
67.399624
 31
0.0
  0
LINE
  5
EE
330
DE
100
AcDbEntity
  8
CSLAYER2
  6
CONTINUOUS
 62
     7
100
AcDbLine
 10
131.119
 20
67.399624
 30
0.0
 11
131.157691
 21
67.368659
 31
0.0
  0
LINE
  5
EF
330
DE
100
AcDbEntity
  8
CSLAYER2
  6
CONTINUOUS
 62
     7
100
AcDbLine
 10
131.157691
 20
67.368659
 30
0.0
 11
131.19799
 21
67.342997
 31
0.0
  0
LINE
  5
F0
330
DE
100
AcDbEntity
  8
CSLAYER2
  6
CONTINUOUS
 62
     7
100
AcDbLine
 10
131.19799
 20
67.342997
 30
0.0
 11
131.23959
 21
67.322832
 31
0.0
  0
LINE
  5
F1
330
DE
100
AcDbEntity
  8
CSLAYER2
  6
CONTINUOUS
 62
     7
100
AcDbLine
 10
131.23959
 20
67.322832
 30
0.0
 11
131.282176
 21
67.308318
 31
0.0
  0
LINE
  5
F2
330
DE
100
AcDbEntity
  8
CSLAYER2
  6
CONTINUOUS
 62
     7
100
AcDbLine
 10
131.282176
 20
67.308318
 30
0.0
 11
131.325422
 21
67.299565
 31
0.0
  0
LINE
  5
F3
330
DE
100
AcDbEntity
  8
CSLAYER2
  6
CONTINUOUS
 62
     7
100
AcDbLine
 10
131.325422
 20
67.299565
 30
0.0
 11
131.369
 21
67.29664
 31
0.0
  0
LINE
  5
F4
330
DE
100
AcDbEntity
  8
CSLAYER2
  6
CONTINUOUS
 62
     7
100
AcDbLine
 10
131.369
 20
67.29664
 30
0.0
 11
131.412578
 21
67.299565
 31
0.0
  0
LINE
  5
F5
330
DE
100
AcDbEntity
  8
CSLAYER2
  6
CONTINUOUS
 62
     7
100
AcDbLine
 10
131.412578
 20
67.299565
 30
0.0
 11
131.455824
 21
67.308318
 31
0.0
  0
LINE
  5
F6
330
DE
100
AcDbEntity
  8
CSLAYER2
  6
CONTINUOUS
 62
     7
100
AcDbLine
 10
131.455824
 20
67.308318
 30
0.0
 11
131.49841
 21
67.322832
 31
0.0
  0
LINE
  5
F7
330
DE
100
AcDbEntity
  8
CSLAYER2
  6
CONTINUOUS
 62
     7
100
AcDbLine
 10
131.49841
 20
67.322832
 30
0.0
 11
131.54001
 21
67.342997
 31
0.0
  0
LINE
  5
F8
330
DE
100
AcDbEntity
  8
CSLAYER2
  6
CONTINUOUS
 62
     7
100
AcDbLine
 10
131.54001
 20
67.342997
 30
0.0
 11
131.580309
 21
67.368659
 31
0.0
  0
LINE
  5
F9
330
DE
100
AcDbEntity
  8
CSLAYER2
  6
CONTINUOUS
 62
     7
100
AcDbLine
 10
131.580309
 20
67.368659
 30
0.0
 11
131.619
 21
67.399624
 31
0.0
  0
LINE
  5
FA
330
DE
100
AcDbEntity
  8
CSLAYER2
  6
CONTINUOUS
 62
     7
100
AcDbLine
 10
131.619
 20
67.399624
 30
0.0
 11
131.655788
 21
67.435654
 31
0.0
  0
LINE
  5
FB
330
DE
100
AcDbEntity
  8
CSLAYER2
  6
CONTINUOUS
 62
     7
100
AcDbLine
 10
131.655788
 20
67.435654
 30
0.0
 11
131.690394
 21
67.476477
 31
0.0
  0
LINE
  5
FC
330
DE
100
AcDbEntity
  8
CSLAYER2
  6
CONTINUOUS
 62
     7
100
AcDbLine
 10
131.690394
 20
67.476477
 30
0.0
 11
131.722553
 21
67.521781
 31
0.0
  0
LINE
  5
FD
330
DE
100
AcDbEntity
  8
CSLAYER2
  6
CONTINUOUS
 62
     7
100
AcDbLine
 10
131.722553
 20
67.521781
 30
0.0
 11
131.752022
 21
67.571222
 31
0.0
  0
LINE
  5
FE
330
DE
100
AcDbEntity
  8
CSLAYER2
  6
CONTINUOUS
 62
     7
100
AcDbLine
 10
131.752022
 20
67.571222
 30
0.0
 11
131.778576
 21
67.624423
 31
0.0
  0
LINE
  5
FF
330
DE
100
AcDbEntity
  8
CSLAYER2
  6
CONTINUOUS
 62
     7
100
AcDbLine
 10
131.778576
 20
67.624423
 30
0.0
 11
131.802013
 21
67.68098
 31
0.0
  0
LINE
  5
100
330
DE
100
AcDbEntity
  8
CSLAYER2
  6
CONTINUOUS
 62
     7
100
AcDbLine
 10
131.802013
 20
67.68098
 30
0.0
 11
131.822154
 21
67.740462
 31
0.0
  0
LINE
  5
101
330
DE
100
AcDbEntity
  8
CSLAYER2
  6
CONTINUOUS
 62
     7
100
AcDbLine
 10
131.822154
 20
67.740462
 30
0.0
 11
131.838846
 21
67.802416
 31
0.0
  0
LINE
  5
102
330
DE
100
AcDbEntity
  8
CSLAYER2
  6
CONTINUOUS
 62
     7
100
AcDbLine
 10
131.838846
 20
67.802416
 30
0.0
 11
131.851963
 21
67.866371
 31
0.0
  0
LINE
  5
103
330
DE
100
AcDbEntity
  8
CSLAYER2
  6
CONTINUOUS
 62
     7
100
AcDbLine
 10
131.851963
 20
67.866371
 30
0.0
 11
131.861404
 21
67.93184
 31
0.0
  0
LINE
  5
104
330
DE
100
AcDbEntity
  8
CSLAYER2
  6
CONTINUOUS
 62
     7
100
AcDbLine
 10
131.861404
 20
67.93184
 30
0.0
 11
131.867097
 21
67.998325
 31
0.0
  0
LINE
  5
105
330
DE
100
AcDbEntity
  8
CSLAYER2
  6
CONTINUOUS
 62
     7
100
AcDbLine
 10
131.867097
 20
67.998325
 30
0.0
 11
131.869
 21
68.06532
 31
0.0
  0
ENDBLK
  5
E0
330
DE
100
AcDbEntity
  8
0
100
AcDbBlockEnd
  0
BLOCK
  5
142
330
141
100
AcDbEntity
  8
0
100
AcDbBlockBegin
  2
BLKF013
 70
     0
 71
     0
 10
0.0
 20
0.0
 30
0.0
  3
BLKF013
  1

  0
TEXT
  5
145
330
141
100
AcDbEntity
  8
CSLAYER2
 62
     4
100
AcDbText
 10
167.657394
 20
44.188999
 30
0.0
 40
2.8
  1
(
 41
1.145455
  7
ED_VECTOR
 72
     5
 11
169.337394
 21
44.188999
 31
0.0
100
AcDbText
  0
TEXT
  5
146
330
141
100
AcDbEntity
  8
CSLAYER2
 62
     4
100
AcDbText
 10
170.177399
 20
44.188999
 30
0.0
 40
2.8
  1
13
 41
0.851351
  7
ED_VECTOR
 72
     5
 11
174.377398
 21
44.188999
 31
0.0
100
AcDbText
  0
TEXT
  5
147
330
141
100
AcDbEntity
  8
CSLAYER2
 62
     4
100
AcDbText
 10
175.217407
 20
44.188999
 30
0.0
 40
2.8
  1
)
 41
1.26
  7
ED_VECTOR
 72
     5
 11
176.897407
 21
44.188999
 31
0.0
100
AcDbText
  0
LINE
  5
148
330
141
100
AcDbEntity
  8
CSLAYER2
  6
CONTINUOUS
 62
     4
100
AcDbLine
 10
167.769001
 20
42.284
 30
0.0
 11
165.769001
 21
41.984
 31
0.0
  0
LINE
  5
149
330
141
100
AcDbEntity
  8
CSLAYER2
  6
CONTINUOUS
 62
     4
100
AcDbLine
 10
165.769001
 20
41.984
 30
0.0
 11
167.769001
 21
41.684
 31
0.0
  0
LINE
  5
14A
330
141
100
AcDbEntity
  8
CSLAYER2
  6
CONTINUOUS
 62
     4
100
AcDbLine
 10
165.769001
 20
41.984
 30
0.0
 11
178.769001
 21
41.984
 31
0.0
  0
LINE
  5
14B
330
141
100
AcDbEntity
  8
CSLAYER2
  6
CONTINUOUS
 62
     4
100
AcDbLine
 10
176.769001
 20
41.684
 30
0.0
 11
178.769001
 21
41.984
 31
0.0
  0
LINE
  5
14C
330
141
100
AcDbEntity
  8
CSLAYER2
  6
CONTINUOUS
 62
     4
100
AcDbLine
 10
178.769001
 20
41.984
 30
0.0
 11
176.769001
 21
42.284
 31
0.0
  0
LINE
  5
14D
330
141
100
AcDbEntity
  8
CSLAYER2
  6
CONTINUOUS
 62
     4
100
AcDbLine
 10
178.769001
 20
67.684
 30
0.0
 11
178.769001
 21
39.984
 31
0.0
  0
ENDBLK
  5
143
330
141
100
AcDbEntity
  8
0
100
AcDbBlockEnd
  0
BLOCK
  5
14F
330
14E
100
AcDbEntity
  8
0
100
AcDbBlockBegin
  2
BLKF014
 70
     0
 71
     0
 10
0.0
 20
0.0
 30
0.0
  3
BLKF014
  1

  0
TEXT
  5
152
330
14E
100
AcDbEntity
  8
CSLAYER2
 62
     4
100
AcDbText
 10
99.677399
 20
36.188999
 30
0.0
 40
2.8
  1
(
 41
1.145455
  7
ED_VECTOR
 72
     5
 11
101.357399
 21
36.188999
 31
0.0
100
AcDbText
  0
TEXT
  5
153
330
14E
100
AcDbEntity
  8
CSLAYER2
 62
     4
100
AcDbText
 10
102.197403
 20
36.188999
 30
0.0
 40
2.8
  1
141.4
 41
1.002273
  7
ED_VECTOR
 72
     5
 11
113.957403
 21
36.188999
 31
0.0
100
AcDbText
  0
TEXT
  5
154
330
14E
100
AcDbEntity
  8
CSLAYER2
 62
     4
100
AcDbText
 10
114.797401
 20
36.188999
 30
0.0
 40
2.8
  1
)
 41
1.26
  7
ED_VECTOR
 72
     5
 11
116.477401
 21
36.188999
 31
0.0
100
AcDbText
  0
LINE
  5
155
330
14E
100
AcDbEntity
  8
CSLAYER2
  6
CONTINUOUS
 62
     4
100
AcDbLine
 10
37.369
 20
62.084
 30
0.0
 11
37.369
 21
31.984
 31
0.0
  0
LINE
  5
156
330
14E
100
AcDbEntity
  8
CSLAYER2
  6
CONTINUOUS
 62
     4
100
AcDbLine
 10
39.369
 20
34.284
 30
0.0
 11
37.369
 21
33.984
 31
0.0
  0
LINE
  5
157
330
14E
100
AcDbEntity
  8
CSLAYER2
  6
CONTINUOUS
 62
     4
100
AcDbLine
 10
37.369
 20
33.984
 30
0.0
 11
39.369
 21
33.684
 31
0.0
  0
LINE
  5
158
330
14E
100
AcDbEntity
  8
CSLAYER2
  6
CONTINUOUS
 62
     4
100
AcDbLine
 10
37.369
 20
33.984
 30
0.0
 11
178.769001
 21
33.984
 31
0.0
  0
LINE
  5
159
330
14E
100
AcDbEntity
  8
CSLAYER2
  6
CONTINUOUS
 62
     4
100
AcDbLine
 10
176.769001
 20
33.684
 30
0.0
 11
178.769001
 21
33.984
 31
0.0
  0
LINE
  5
15A
330
14E
100
AcDbEntity
  8
CSLAYER2
  6
CONTINUOUS
 62
     4
100
AcDbLine
 10
178.769001
 20
33.984
 30
0.0
 11
176.769001
 21
34.284
 31
0.0
  0
LINE
  5
15B
330
14E
100
AcDbEntity
  8
CSLAYER2
  6
CONTINUOUS
 62
     4
100
AcDbLine
 10
178.769001
 20
67.684
 30
0.0
 11
178.769001
 21
31.984
 31
0.0
  0
ENDBLK
  5
150
330
14E
100
AcDbEntity
  8
0
100
AcDbBlockEnd
  0
BLOCK
  5
15D
330
15C
100
AcDbEntity
  8
0
100
AcDbBlockBegin
  2
BLKF015
 70
     0
 71
     0
 10
0.0
 20
0.0
 30
0.0
  3
BLKF015
  1

  0
TEXT
  5
160
330
15C
100
AcDbEntity
  8
CSLAYER2
 62
     4
100
AcDbText
 10
79.507401
 20
44.188999
 30
0.0
 40
2.8
  1
93.5
 41
1.034328
  7
ED_VECTOR
 72
     5
 11
88.7474
 21
44.188999
 31
0.0
100
AcDbText
  0
LINE
  5
161
330
15C
100
AcDbEntity
  8
CSLAYER2
  6
CONTINUOUS
 62
     4
100
AcDbLine
 10
37.369
 20
62.084
 30
0.0
 11
37.369
 21
39.984
 31
0.0
  0
LINE
  5
162
330
15C
100
AcDbEntity
  8
CSLAYER2
  6
CONTINUOUS
 62
     4
100
AcDbLine
 10
39.369
 20
42.284
 30
0.0
 11
37.369
 21
41.984
 31
0.0
  0
LINE
  5
163
330
15C
100
AcDbEntity
  8
CSLAYER2
  6
CONTINUOUS
 62
     4
100
AcDbLine
 10
37.369
 20
41.984
 30
0.0
 11
39.369
 21
41.684
 31
0.0
  0
LINE
  5
164
330
15C
100
AcDbEntity
  8
CSLAYER2
  6
CONTINUOUS
 62
     4
100
AcDbLine
 10
37.369
 20
41.984
 30
0.0
 11
130.869
 21
41.984
 31
0.0
  0
LINE
  5
165
330
15C
100
AcDbEntity
  8
CSLAYER2
  6
CONTINUOUS
 62
     4
100
AcDbLine
 10
128.869
 20
41.684
 30
0.0
 11
130.869
 21
41.984
 31
0.0
  0
LINE
  5
166
330
15C
100
AcDbEntity
  8
CSLAYER2
  6
CONTINUOUS
 62
     4
100
AcDbLine
 10
130.869
 20
41.984
 30
0.0
 11
128.869
 21
42.284
 31
0.0
  0
LINE
  5
167
330
15C
100
AcDbEntity
  8
CSLAYER2
  6
CONTINUOUS
 62
     4
100
AcDbLine
 10
130.869
 20
62.084
 30
0.0
 11
130.869
 21
39.984
 31
0.0
  0
ENDBLK
  5
15E
330
15C
100
AcDbEntity
  8
0
100
AcDbBlockEnd
  0
BLOCK
  5
169
330
168
100
AcDbEntity
  8
0
100
AcDbBlockBegin
  2
BLKF016
 70
     0
 71
     0
 10
0.0
 20
0.0
 30
0.0
  3
BLKF016
  1

  0
TEXT
  5
16C
330
168
100
AcDbEntity
  8
CSLAYER2
 62
     4
100
AcDbText
 10
141.187393
 20
44.188999
 30
0.0
 40
2.8
  1
(
 41
1.145455
  7
ED_VECTOR
 72
     5
 11
142.867393
 21
44.188999
 31
0.0
100
AcDbText
  0
TEXT
  5
16D
330
168
100
AcDbEntity
  8
CSLAYER2
 62
     4
100
AcDbText
 10
143.707397
 20
44.188999
 30
0.0
 40
2.8
  1
34.9
 41
1.05
  7
ED_VECTOR
 72
     5
 11
152.947397
 21
44.188999
 31
0.0
100
AcDbText
  0
TEXT
  5
16E
330
168
100
AcDbEntity
  8
CSLAYER2
 62
     4
100
AcDbText
 10
153.787399
 20
44.188999
 30
0.0
 40
2.8
  1
)
 41
1.26
  7
ED_VECTOR
 72
     5
 11
155.467399
 21
44.188999
 31
0.0
100
AcDbText
  0
LINE
  5
16F
330
168
100
AcDbEntity
  8
CSLAYER2
  6
CONTINUOUS
 62
     4
100
AcDbLine
 10
132.869
 20
42.284
 30
0.0
 11
130.869
 21
41.984
 31
0.0
  0
LINE
  5
170
330
168
100
AcDbEntity
  8
CSLAYER2
  6
CONTINUOUS
 62
     4
100
AcDbLine
 10
130.869
 20
41.984
 30
0.0
 11
132.869
 21
41.684
 31
0.0
  0
LINE
  5
171
330
168
100
AcDbEntity
  8
CSLAYER2
  6
CONTINUOUS
 62
     4
100
AcDbLine
 10
130.869
 20
41.984
 30
0.0
 11
165.769001
 21
41.984
 31
0.0
  0
LINE
  5
172
330
168
100
AcDbEntity
  8
CSLAYER2
  6
CONTINUOUS
 62
     4
100
AcDbLine
 10
163.769001
 20
41.684
 30
0.0
 11
165.769001
 21
41.984
 31
0.0
  0
LINE
  5
173
330
168
100
AcDbEntity
  8
CSLAYER2
  6
CONTINUOUS
 62
     4
100
AcDbLine
 10
165.769001
 20
41.984
 30
0.0
 11
163.769001
 21
42.284
 31
0.0
  0
LINE
  5
174
330
168
100
AcDbEntity
  8
CSLAYER2
  6
CONTINUOUS
 62
     4
100
AcDbLine
 10
165.769001
 20
67.034
 30
0.0
 11
165.769001
 21
39.984
 31
0.0
  0
ENDBLK
  5
16A
330
168
100
AcDbEntity
  8
0
100
AcDbBlockEnd
  0
BLOCK
  5
177
330
176
100
AcDbEntity
  8
0
100
AcDbBlockBegin
  2
BLKF017
 70
     0
 71
     0
 10
0.0
 20
0.0
 30
0.0
  3
BLKF017
  1

  0
TEXT
  5
17A
330
176
100
AcDbEntity
  8
CSLAYER2
 62
     4
100
AcDbText
 10
23.164
 20
69.020798
 30
0.0
 40
2.8
  1
φ
 50
90.0
 41
1.68
  7
ED_VECTOR
 72
     5
 11
23.164
 21
72.380798
 31
0.0
100
AcDbText
  0
TEXT
  5
17B
330
176
100
AcDbEntity
  8
CSLAYER2
 62
     4
100
AcDbText
 10
23.164
 20
74.060799
 30
0.0
 40
2.8
  1
30
 50
90.0
 41
0.851351
  7
ED_VECTOR
 72
     5
 11
23.164
 21
78.260798
 31
0.0
100
AcDbText
  0
TEXT
  5
17C
330
176
100
AcDbEntity
  8
CSLAYER2
 62
     4
100
AcDbText
 10
21.4
 20
79.1008
 30
0.0
 40
1.4
  1
-0.02
 50
90.0
 41
1.287097
  7
ED_VECTOR
 72
     5
 11
21.4
 21
87.080799
 31
0.0
100
AcDbText
  0
TEXT
  5
17D
330
176
100
AcDbEntity
  8
CSLAYER2
 62
     4
100
AcDbText
 10
23.542
 20
79.1008
 30
0.0
 40
1.4
  1
-0.03
 50
90.0
 41
1.287097
  7
ED_VECTOR
 72
     5
 11
23.542
 21
87.080799
 31
0.0
100
AcDbText
  0
LINE
  5
17E
330
176
100
AcDbEntity
  8
CSLAYER2
  6
CONTINUOUS
 62
     4
100
AcDbLine
 10
37.469
 20
91.984
 30
0.0
 11
23.369
 21
91.984
 31
0.0
  0
LINE
  5
17F
330
176
100
AcDbEntity
  8
CSLAYER2
  6
CONTINUOUS
 62
     4
100
AcDbLine
 10
25.669
 20
89.984
 30
0.0
 11
25.369
 21
91.984
 31
0.0
  0
LINE
  5
180
330
176
100
AcDbEntity
  8
CSLAYER2
  6
CONTINUOUS
 62
     4
100
AcDbLine
 10
25.369
 20
91.984
 30
0.0
 11
25.069
 21
89.984
 31
0.0
  0
LINE
  5
181
330
176
100
AcDbEntity
  8
CSLAYER2
  6
CONTINUOUS
 62
     4
100
AcDbLine
 10
25.369
 20
91.984
 30
0.0
 11
25.369
 21
61.984
 31
0.0
  0
LINE
  5
182
330
176
100
AcDbEntity
  8
CSLAYER2
  6
CONTINUOUS
 62
     4
100
AcDbLine
 10
25.069
 20
63.984
 30
0.0
 11
25.369
 21
61.984
 31
0.0
  0
LINE
  5
183
330
176
100
AcDbEntity
  8
CSLAYER2
  6
CONTINUOUS
 62
     4
100
AcDbLine
 10
25.369
 20
61.984
 30
0.0
 11
25.669
 21
63.984
 31
0.0
  0
LINE
  5
184
330
176
100
AcDbEntity
  8
CSLAYER2
  6
CONTINUOUS
 62
     4
100
AcDbLine
 10
37.469
 20
61.984
 30
0.0
 11
23.369
 21
61.984
 31
0.0
  0
ENDBLK
  5
178
330
176
100
AcDbEntity
  8
0
100
AcDbBlockEnd
  0
ENDSEC
  0
SECTION
  2
ENTITIES
  0
LINE
  5
6F
330
1F
100
AcDbEntity
  8
CSLAYER2
  6
CONTINUOUS
 62
     7
100
AcDbLine
 10
130.769
 20
91.984
 30
0.0
 11
130.869
 21
91.884
 31
0.0
  0
LINE
  5
70
330
1F
100
AcDbEntity
  8
CSLAYER3
  6
CENTER
 62
     1
100
AcDbLine
 10
35.369
 20
76.984
 30
0.0
 11
167.769001
 21
76.984
 31
0.0
  0
LINE
  5
71
330
1F
100
AcDbEntity
  8
CSLAYER2
  6
CONTINUOUS
 62
     7
100
AcDbLine
 10
37.469
 20
91.984
 30
0.0
 11
130.769
 21
91.984
 31
0.0
  0
LINE
  5
72
330
1F
100
AcDbEntity
  8
CSLAYER2
  6
CONTINUOUS
 62
     7
100
AcDbLine
 10
37.369
 20
91.884
 30
0.0
 11
37.469
 21
91.984
 31
0.0
  0
LINE
  5
73
330
1F
100
AcDbEntity
  8
CSLAYER2
  6
CONTINUOUS
 62
     7
100
AcDbLine
 10
130.869
 20
91.884
 30
0.0
 11
130.869
 21
62.084
 31
0.0
  0
LINE
  5
74
330
1F
100
AcDbEntity
  8
CSLAYER2
  6
CONTINUOUS
 62
     7
100
AcDbLine
 10
130.769
 20
61.984
 30
0.0
 11
130.869
 21
62.084
 31
0.0
  0
LINE
  5
75
330
1F
100
AcDbEntity
  8
CSLAYER2
  6
CONTINUOUS
 62
     7
100
AcDbLine
 10
178.569001
 20
72.649064
 30
0.0
 11
174.969001
 21
72.649064
 31
0.0
  0
LINE
  5
76
330
1F
100
AcDbEntity
  8
CSLAYER2
  6
CONTINUOUS
 62
     4
100
AcDbLine
 10
69.369
 20
83.522348
 30
0.0
 11
72.869
 21
70.445652
 31
0.0
  0
LINE
  5
77
330
1F
100
AcDbEntity
  8
CSLAYER2
  6
CONTINUOUS
 62
     7
100
AcDbLine
 10
37.369
 20
91.884
 30
0.0
 11
37.369
 21
62.084
 31
0.0
  0
LINE
  5
78
330
1F
100
AcDbEntity
  8
CSLAYER2
  6
CONTINUOUS
 62
     4
100
AcDbLine
 10
72.869
 20
83.522348
 30
0.0
 11
69.369
 21
70.445652
 31
0.0
  0
LINE
  5
79
330
1F
100
AcDbEntity
  8
CSLAYER2
  6
CONTINUOUS
 62
     7
100
AcDbLine
 10
37.469
 20
61.984
 30
0.0
 11
130.769
 21
61.984
 31
0.0
  0
LINE
  5
7A
330
1F
100
AcDbEntity
  8
CSLAYER2
  6
CONTINUOUS
 62
     7
100
AcDbLine
 10
37.369
 20
62.084
 30
0.0
 11
37.469
 21
61.984
 31
0.0
  0
LINE
  5
7B
330
1F
100
AcDbEntity
  8
CSLAYER2
  6
CONTINUOUS
 62
     7
100
AcDbLine
 10
174.569001
 20
72.649064
 30
0.0
 11
174.569001
 21
74.318936
 31
0.0
  0
LINE
  5
7C
330
1F
100
AcDbEntity
  8
CSLAYER2
  6
CONTINUOUS
 62
     7
100
AcDbLine
 10
165.969001
 20
72.649064
 30
0.0
 11
165.969001
 21
74.318936
 31
0.0
  0
LINE
  5
7D
330
1F
100
AcDbEntity
  8
CSLAYER2
  6
CONTINUOUS
 62
     7
100
AcDbLine
 10
174.569001
 20
72.649064
 30
0.0
 11
165.969001
 21
72.649064
 31
0.0
  0
LINE
  5
7E
330
1F
100
AcDbEntity
  8
CSLAYER2
  6
CONTINUOUS
 62
     7
100
AcDbLine
 10
178.769001
 20
67.684
 30
0.0
 11
178.769001
 21
79.284
 31
0.0
  0
LINE
  5
7F
330
1F
100
AcDbEntity
  8
CSLAYER2
  6
CONTINUOUS
 62
     7
100
AcDbLine
 10
174.769001
 20
67.484
 30
0.0
 11
174.769001
 21
79.484
 31
0.0
  0
LINE
  5
80
330
1F
100
AcDbEntity
  8
CSLAYER2
  6
CONTINUOUS
 62
     7
100
AcDbLine
 10
174.569001
 20
68.318936
 30
0.0
 11
165.969001
 21
68.318936
 31
0.0
  0
LINE
  5
81
330
1F
100
AcDbEntity
  8
CSLAYER2
  6
CONTINUOUS
 62
     7
100
AcDbLine
 10
178.569001
 20
79.484
 30
0.0
 11
165.969001
 21
79.484
 31
0.0
  0
LINE
  5
82
330
1F
100
AcDbEntity
  8
CSLAYER2
  6
CONTINUOUS
 62
     7
100
AcDbLine
 10
69.369
 20
83.522348
 30
0.0
 11
72.869
 21
83.522348
 31
0.0
  0
LINE
  5
83
330
1F
100
AcDbEntity
  8
CSLAYER2
  6
CONTINUOUS
 62
     7
100
AcDbLine
 10
69.369
 20
70.445652
 30
0.0
 11
72.869
 21
70.445652
 31
0.0
  0
LINE
  5
84
330
1F
100
AcDbEntity
  8
CSLAYER2
  6
CONTINUOUS
 62
     7
100
AcDbLine
 10
69.369
 20
83.522348
 30
0.0
 11
69.369
 21
70.445652
 31
0.0
  0
LINE
  5
85
330
1F
100
AcDbEntity
  8
CSLAYER2
  6
CONTINUOUS
 62
     7
100
AcDbLine
 10
72.869
 20
83.522348
 30
0.0
 11
72.869
 21
70.445652
 31
0.0
  0
ARC
  5
86
330
1F
100
AcDbEntity
  8
CSLAYER2
  6
CONTINUOUS
 62
     7
100
AcDbCircle
 10
93.617711
 20
76.984
 30
0.0
 40
25.11473671
100
AcDbArc
 50
164.909815
 51
195.090185
  0
ARC
  5
87
330
1F
100
AcDbEntity
  8
CSLAYER2
  6
CONTINUOUS
 62
     7
100
AcDbCircle
 10
48.620289
 20
76.984
 30
0.0
 40
25.11473671
100
AcDbArc
 50
-15.090185
 51
15.090185
  0
LINE
  5
88
330
1F
100
AcDbEntity
  8
CSLAYER2
  6
CONTINUOUS
 62
     7
100
AcDbLine
 10
178.569001
 20
74.318936
 30
0.0
 11
174.969001
 21
74.318936
 31
0.0
  0
LINE
  5
89
330
1F
100
AcDbEntity
  8
CSLAYER2
  6
CONTINUOUS
 62
     7
100
AcDbLine
 10
178.569001
 20
68.318936
 30
0.0
 11
174.969001
 21
68.318936
 31
0.0
  0
LINE
  5
8A
330
1F
100
AcDbEntity
  8
CSLAYER2
  6
CONTINUOUS
 62
     7
100
AcDbLine
 10
174.969001
 20
72.649064
 30
0.0
 11
174.969001
 21
74.318936
 31
0.0
  0
LINE
  5
8B
330
1F
100
AcDbEntity
  8
CSLAYER2
  6
CONTINUOUS
 62
     7
100
AcDbLine
 10
165.969001
 20
67.484
 30
0.0
 11
165.969001
 21
68.318936
 31
0.0
  0
LINE
  5
8C
330
1F
100
AcDbEntity
  8
CSLAYER2
  6
CONTINUOUS
 62
     7
100
AcDbLine
 10
174.569001
 20
67.484
 30
0.0
 11
174.569001
 21
68.318936
 31
0.0
  0
LINE
  5
8D
330
1F
100
AcDbEntity
  8
CSLAYER2
  6
CONTINUOUS
 62
     7
100
AcDbLine
 10
174.969001
 20
67.484
 30
0.0
 11
174.969001
 21
68.318936
 31
0.0
  0
ARC
  5
8E
330
1F
100
AcDbEntity
  8
CSLAYER2
  6
CONTINUOUS
 62
     7
100
AcDbCircle
 10
186.587751
 20
70.484
 30
0.0
 40
11.81875
100
AcDbArc
 50
169.444442
 51
190.555558
  0
ARC
  5
8F
330
1F
100
AcDbEntity
  8
CSLAYER2
  6
CONTINUOUS
 62
     7
100
AcDbCircle
 10
166.950251
 20
70.484
 30
0.0
 40
11.81875
100
AcDbArc
 50
-10.555558
 51
10.555558
  0
ARC
  5
90
330
1F
100
AcDbEntity
  8
CSLAYER2
  6
CONTINUOUS
 62
     7
100
AcDbCircle
 10
162.950251
 20
70.484
 30
0.0
 40
11.81875
100
AcDbArc
 50
-10.555558
 51
10.555558
  0
LINE
  5
91
330
1F
100
AcDbEntity
  8
CSLAYER2
  6
CONTINUOUS
 62
     7
100
AcDbLine
 10
178.569001
 20
67.484
 30
0.0
 11
178.569001
 21
68.318936
 31
0.0
  0
ARC
  5
92
330
1F
100
AcDbEntity
  8
CSLAYER2
  6
CONTINUOUS
 62
     7
100
AcDbCircle
 10
177.587751
 20
70.484
 30
0.0
 40
11.81875
100
AcDbArc
 50
169.444442
 51
190.555558
  0
LINE
  5
93
330
1F
100
AcDbEntity
  8
CSLAYER2
  6
CONTINUOUS
 62
     7
100
AcDbLine
 10
178.569001
 20
72.649064
 30
0.0
 11
178.569001
 21
74.318936
 31
0.0
  0
LINE
  5
94
330
1F
100
AcDbEntity
  8
CSLAYER2
  6
CONTINUOUS
 62
     7
100
AcDbLine
 10
174.569001
 20
74.318936
 30
0.0
 11
165.969001
 21
74.318936
 31
0.0
  0
ARC
  5
95
330
1F
100
AcDbEntity
  8
CSLAYER2
  6
CONTINUOUS
 62
     7
100
AcDbCircle
 10
177.587751
 20
76.484
 30
0.0
 40
11.81875
100
AcDbArc
 50
169.444442
 51
190.555558
  0
ARC
  5
96
330
1F
100
AcDbEntity
  8
CSLAYER2
  6
CONTINUOUS
 62
     7
100
AcDbCircle
 10
162.950251
 20
76.484
 30
0.0
 40
11.81875
100
AcDbArc
 50
-10.555558
 51
10.555558
  0
ARC
  5
97
330
1F
100
AcDbEntity
  8
CSLAYER2
  6
CONTINUOUS
 62
     7
100
AcDbCircle
 10
166.950251
 20
76.484
 30
0.0
 40
11.81875
100
AcDbArc
 50
-10.555558
 51
10.555558
  0
ARC
  5
98
330
1F
100
AcDbEntity
  8
CSLAYER2
  6
CONTINUOUS
 62
     7
100
AcDbCircle
 10
186.587751
 20
76.484
 30
0.0
 40
11.81875
100
AcDbArc
 50
169.444442
 51
190.555558
  0
LINE
  5
99
330
1F
100
AcDbEntity
  8
CSLAYER2
  6
CONTINUOUS
 62
     7
100
AcDbLine
 10
174.569001
 20
78.649064
 30
0.0
 11
165.969001
 21
78.649064
 31
0.0
  0
LINE
  5
9A
330
1F
100
AcDbEntity
  8
CSLAYER2
  6
CONTINUOUS
 62
     7
100
AcDbLine
 10
178.569001
 20
78.649064
 30
0.0
 11
174.969001
 21
78.649064
 31
0.0
  0
LINE
  5
9B
330
1F
100
AcDbEntity
  8
CSLAYER2
  6
CONTINUOUS
 62
     7
100
AcDbLine
 10
165.969001
 20
78.649064
 30
0.0
 11
165.969001
 21
79.484
 31
0.0
  0
LINE
  5
9C
330
1F
100
AcDbEntity
  8
CSLAYER2
  6
CONTINUOUS
 62
     7
100
AcDbLine
 10
174.569001
 20
78.649064
 30
0.0
 11
174.569001
 21
79.484
 31
0.0
  0
LINE
  5
9D
330
1F
100
AcDbEntity
  8
CSLAYER2
  6
CONTINUOUS
 62
     7
100
AcDbLine
 10
174.969001
 20
78.649064
 30
0.0
 11
174.969001
 21
79.484
 31
0.0
  0
LINE
  5
9E
330
1F
100
AcDbEntity
  8
CSLAYER2
  6
CONTINUOUS
 62
     7
100
AcDbLine
 10
178.569001
 20
78.649064
 30
0.0
 11
178.569001
 21
79.484
 31
0.0
  0
ARC
  5
9F
330
1F
100
AcDbEntity
  8
CSLAYER2
  6
CONTINUOUS
 62
     4
100
AcDbCircle
 10
202.269001
 20
75.484
 30
0.0
 40
2.5
100
AcDbArc
 50
-53.130102
 51
53.130102
  0
LINE
  5
A0
330
1F
100
AcDbEntity
  8
CSLAYER2
  6
CONTINUOUS
 62
     7
100
AcDbLine
 10
178.769001
 20
79.284
 30
0.0
 11
178.569001
 21
79.484
 31
0.0
  0
LINE
  5
A1
330
1F
100
AcDbEntity
  8
CSLAYER2
  6
CONTINUOUS
 62
     7
100
AcDbLine
 10
178.569001
 20
67.484
 30
0.0
 11
178.769001
 21
67.684
 31
0.0
  0
ARC
  5
A2
330
1F
100
AcDbEntity
  8
CSLAYER2
  6
CONTINUOUS
 62
     4
100
AcDbCircle
 10
205.269001
 20
71.484
 30
0.0
 40
2.5
100
AcDbArc
 50
126.869898
 51
233.130102
  0
ARC
  5
A3
330
1F
100
AcDbEntity
  8
CSLAYER2
  6
CONTINUOUS
 62
     4
100
AcDbCircle
 10
202.269001
 20
71.484
 30
0.0
 40
2.5
100
AcDbArc
 50
-53.130102
 51
53.130102
  0
LINE
  5
A4
330
1F
100
AcDbEntity
  8
CSLAYER2
  6
CONTINUOUS
 62
     7
100
AcDbLine
 10
165.969001
 20
67.484
 30
0.0
 11
178.569001
 21
67.484
 31
0.0
  0
LINE
  5
A5
330
1F
100
AcDbEntity
  8
CSLAYER2
  6
CONTINUOUS
 62
     7
100
AcDbLine
 10
165.969001
 20
79.484
 30
0.0
 11
165.769001
 21
79.284
 31
0.0
  0
LINE
  5
A6
330
1F
100
AcDbEntity
  8
CSLAYER2
  6
CONTINUOUS
 62
     7
100
AcDbLine
 10
165.769001
 20
67.684
 30
0.0
 11
165.969001
 21
67.484
 31
0.0
  0
LINE
  5
A7
330
1F
100
AcDbEntity
  8
CSLAYER2
  6
CONTINUOUS
 62
     4
100
AcDbLine
 10
162.769001
 20
81.226935
 30
0.0
 11
165.769001
 21
72.741065
 31
0.0
  0
LINE
  5
A8
330
1F
100
AcDbEntity
  8
CSLAYER2
  6
CONTINUOUS
 62
     4
100
AcDbLine
 10
165.769001
 20
81.226935
 30
0.0
 11
162.769001
 21
72.741065
 31
0.0
  0
LINE
  5
A9
330
1F
100
AcDbEntity
  8
CSLAYER2
  6
CONTINUOUS
 62
     7
100
AcDbLine
 10
162.769001
 20
81.226935
 30
0.0
 11
162.769001
 21
72.741065
 31
0.0
  0
LINE
  5
AA
330
1F
100
AcDbEntity
  8
CSLAYER2
  6
CONTINUOUS
 62
     7
100
AcDbLine
 10
165.769001
 20
67.684
 30
0.0
 11
165.769001
 21
79.284
 31
0.0
  0
INSERT
  5
AE
330
1F
100
AcDbEntity
  8
0
100
AcDbBlockReference
  2
BLKF011
 10
0.0
 20
0.0
 30
0.0
  0
LINE
  5
D3
330
1F
100
AcDbEntity
  8
CSLAYER2
  6
CONTINUOUS
 62
     7
100
AcDbLine
 10
165.769001
 20
72.741065
 30
0.0
 11
162.769001
 21
72.741065
 31
0.0
  0
LINE
  5
D4
330
1F
100
AcDbEntity
  8
CSLAYER2
  6
CONTINUOUS
 62
     7
100
AcDbLine
 10
153.769001
 20
86.434
 30
0.0
 11
153.769001
 21
67.534
 31
0.0
  0
LINE
  5
D5
330
1F
100
AcDbEntity
  8
CSLAYER2
  6
CONTINUOUS
 62
     7
100
AcDbLine
 10
154.269001
 20
67.034
 30
0.0
 11
165.769001
 21
67.034
 31
0.0
  0
LINE
  5
D6
330
1F
100
AcDbEntity
  8
CSLAYER2
  6
CONTINUOUS
 62
     7
100
AcDbLine
 10
165.769001
 20
67.034
 30
0.0
 11
165.769001
 21
86.934
 31
0.0
  0
LINE
  5
D7
330
1F
100
AcDbEntity
  8
CSLAYER2
  6
CONTINUOUS
 62
     7
100
AcDbLine
 10
165.769001
 20
86.934
 30
0.0
 11
154.269001
 21
86.934
 31
0.0
  0
LINE
  5
D8
330
1F
100
AcDbEntity
  8
CSLAYER2
  6
CONTINUOUS
 62
     7
100
AcDbLine
 10
165.769001
 20
81.226935
 30
0.0
 11
162.769001
 21
81.226935
 31
0.0
  0
ARC
  5
D9
330
1F
100
AcDbEntity
  8
CSLAYER2
  6
CONTINUOUS
 62
     7
100
AcDbCircle
 10
171.769001
 20
76.984
 30
0.0
 40
9.949999999999999
100
AcDbArc
 50
154.759064
 51
205.240936
  0
LINE
  5
DA
330
1F
100
AcDbEntity
  8
CSLAYER2
  6
CONTINUOUS
 62
     7
100
AcDbLine
 10
153.769001
 20
85.409
 30
0.0
 11
152.369
 21
85.409
 31
0.0
  0
LINE
  5
DB
330
1F
100
AcDbEntity
  8
CSLAYER2
  6
CONTINUOUS
 62
     7
100
AcDbLine
 10
152.369
 20
68.559
 30
0.0
 11
153.769001
 21
68.559
 31
0.0
  0
LINE
  5
DC
330
1F
100
AcDbEntity
  8
CSLAYER2
  6
CONTINUOUS
 62
     7
100
AcDbLine
 10
153.769001
 20
86.434
 30
0.0
 11
154.269001
 21
86.934
 31
0.0
  0
LINE
  5
DD
330
1F
100
AcDbEntity
  8
CSLAYER2
  6
CONTINUOUS
 62
     7
100
AcDbLine
 10
154.269001
 20
67.034
 30
0.0
 11
153.769001
 21
67.534
 31
0.0
  0
INSERT
  5
E1
330
1F
100
AcDbEntity
  8
0
100
AcDbBlockReference
  2
BLKF012
 10
0.0
 20
0.0
 30
0.0
  0
LINE
  5
106
330
1F
100
AcDbEntity
  8
CSLAYER2
  6
CONTINUOUS
 62
     7
100
AcDbLine
 10
151.869
 20
86.884
 30
0.0
 11
152.369
 21
86.384
 31
0.0
  0
LINE
  5
107
330
1F
100
AcDbEntity
  8
CSLAYER2
  6
CONTINUOUS
 62
     7
100
AcDbLine
 10
152.369
 20
67.584
 30
0.0
 11
151.869
 21
67.084
 31
0.0
  0
LINE
  5
108
330
1F
100
AcDbEntity
  8
CSLAYER2
  6
CONTINUOUS
 62
     7
100
AcDbLine
 10
132.369
 20
67.084
 30
0.0
 11
131.869
 21
67.584
 31
0.0
  0
LINE
  5
109
330
1F
100
AcDbEntity
  8
CSLAYER2
  6
CONTINUOUS
 62
     7
100
AcDbLine
 10
131.869
 20
86.384
 30
0.0
 11
132.369
 21
86.884
 31
0.0
  0
LINE
  5
10A
330
1F
100
AcDbEntity
  8
CSLAYER2
  6
CONTINUOUS
 62
     7
100
AcDbLine
 10
131.869
 20
67.584
 30
0.0
 11
131.869
 21
86.384
 31
0.0
  0
LINE
  5
10B
330
1F
100
AcDbEntity
  8
CSLAYER2
  6
CONTINUOUS
 62
     7
100
AcDbLine
 10
151.869
 20
67.084
 30
0.0
 11
132.369
 21
67.084
 31
0.0
  0
LINE
  5
10C
330
1F
100
AcDbEntity
  8
CSLAYER2
  6
CONTINUOUS
 62
     7
100
AcDbLine
 10
152.369
 20
86.384
 30
0.0
 11
152.369
 21
67.584
 31
0.0
  0
LINE
  5
10D
330
1F
100
AcDbEntity
  8
CSLAYER2
  6
CONTINUOUS
 62
     4
100
AcDbLine
 10
144.112146
 20
86.884
 30
0.0
 11
152.369
 21
78.627146
 31
0.0
  0
LINE
  5
10E
330
1F
100
AcDbEntity
  8
CSLAYER2
  6
CONTINUOUS
 62
     4
100
AcDbLine
 10
146.940573
 20
86.884
 30
0.0
 11
152.369
 21
81.455573
 31
0.0
  0
LINE
  5
10F
330
1F
100
AcDbEntity
  8
CSLAYER2
  6
CONTINUOUS
 62
     4
100
AcDbLine
 10
131.869
 20
76.499729
 30
0.0
 11
141.284729
 21
67.084
 31
0.0
  0
LINE
  5
110
330
1F
100
AcDbEntity
  8
CSLAYER2
  6
CONTINUOUS
 62
     4
100
AcDbLine
 10
131.869
 20
79.328156
 30
0.0
 11
144.113156
 21
67.084
 31
0.0
  0
LINE
  5
111
330
1F
100
AcDbEntity
  8
CSLAYER2
  6
CONTINUOUS
 62
     4
100
AcDbLine
 10
131.869
 20
82.156583
 30
0.0
 11
146.941583
 21
67.084
 31
0.0
  0
LINE
  5
112
330
1F
100
AcDbEntity
  8
CSLAYER2
  6
CONTINUOUS
 62
     4
100
AcDbLine
 10
131.869
 20
68.014447
 30
0.0
 11
132.799447
 21
67.084
 31
0.0
  0
LINE
  5
113
330
1F
100
AcDbEntity
  8
CSLAYER2
  6
CONTINUOUS
 62
     4
100
AcDbLine
 10
131.869
 20
70.842875
 30
0.0
 11
135.627875
 21
67.084
 31
0.0
  0
LINE
  5
114
330
1F
100
AcDbEntity
  8
CSLAYER2
  6
CONTINUOUS
 62
     7
100
AcDbLine
 10
178.769001
 20
77.484
 30
0.0
 11
203.769001
 21
77.484
 31
0.0
  0
LINE
  5
115
330
1F
100
AcDbEntity
  8
CSLAYER2
  6
CONTINUOUS
 62
     7
100
AcDbLine
 10
178.769001
 20
69.484
 30
0.0
 11
203.769001
 21
69.484
 31
0.0
  0
LINE
  5
116
330
1F
100
AcDbEntity
  8
CSLAYER2
  6
CONTINUOUS
 62
     7
100
AcDbLine
 10
177.369
 20
81.784
 30
0.0
 11
192.369
 21
81.784
 31
0.0
  0
LINE
  5
117
330
1F
100
AcDbEntity
  8
CSLAYER2
  6
CENTER
 62
     1
100
AcDbLine
 10
163.769001
 20
73.484
 30
0.0
 11
203.769001
 21
73.484
 31
0.0
  0
LINE
  5
118
330
1F
100
AcDbEntity
  8
CSLAYER2
  6
CENTER
 62
     1
100
AcDbLine
 10
163.769001
 20
83.384
 30
0.0
 11
192.369
 21
83.384
 31
0.0
  0
ARC
  5
119
330
1F
100
AcDbEntity
  8
CSLAYER2
  6
CONTINUOUS
 62
     4
100
AcDbCircle
 10
192.969
 20
82.584
 30
0.0
 40
1.0
100
AcDbArc
 50
126.869898
 51
233.130102
  0
ARC
  5
11A
330
1F
100
AcDbEntity
  8
CSLAYER2
  6
CONTINUOUS
 62
     4
100
AcDbCircle
 10
191.769
 20
82.584
 30
0.0
 40
1.0
100
AcDbArc
 50
-53.130102
 51
53.130102
  0
ARC
  5
11B
330
1F
100
AcDbEntity
  8
CSLAYER2
  6
CONTINUOUS
 62
     4
100
AcDbCircle
 10
191.769
 20
84.184
 30
0.0
 40
1.0
100
AcDbArc
 50
-53.130102
 51
53.130102
  0
LINE
  5
11C
330
1F
100
AcDbEntity
  8
CSLAYER2
  6
CONTINUOUS
 62
     7
100
AcDbLine
 10
165.769
 20
86.134
 30
0.0
 11
165.869
 21
86.134
 31
0.0
  0
LINE
  5
11D
330
1F
100
AcDbEntity
  8
CSLAYER2
  6
CONTINUOUS
 62
     7
100
AcDbLine
 10
165.869
 20
80.634
 30
0.0
 11
165.769
 21
80.634
 31
0.0
  0
LINE
  5
11E
330
1F
100
AcDbEntity
  8
CSLAYER2
  6
CONTINUOUS
 62
     7
100
AcDbLine
 10
175.368999
 20
86.884
 30
0.0
 11
175.368999
 21
79.884
 31
0.0
  0
LINE
  5
11F
330
1F
100
AcDbEntity
  8
CSLAYER2
  6
CONTINUOUS
 62
     7
100
AcDbLine
 10
165.869
 20
79.884
 30
0.0
 11
165.869
 21
86.884
 31
0.0
  0
LINE
  5
120
330
1F
100
AcDbEntity
  8
CSLAYER2
  6
CONTINUOUS
 62
     7
100
AcDbLine
 10
192.369
 20
84.984
 30
0.0
 11
177.369
 21
84.984
 31
0.0
  0
LINE
  5
121
330
1F
100
AcDbEntity
  8
CSLAYER2
  6
CONTINUOUS
 62
     7
100
AcDbLine
 10
175.768998
 20
79.884
 30
0.0
 11
175.768998
 21
86.884
 31
0.0
  0
LINE
  5
122
330
1F
100
AcDbEntity
  8
CSLAYER2
  6
CONTINUOUS
 62
     7
100
AcDbLine
 10
177.369
 20
86.384
 30
0.0
 11
177.369
 21
80.384
 31
0.0
  0
LINE
  5
123
330
1F
100
AcDbEntity
  8
CSLAYER2
  6
CONTINUOUS
 62
     7
100
AcDbLine
 10
175.368999
 20
85.459
 30
0.0
 11
175.768998
 21
85.459
 31
0.0
  0
LINE
  5
124
330
1F
100
AcDbEntity
  8
CSLAYER2
  6
CONTINUOUS
 62
     7
100
AcDbLine
 10
175.768998
 20
81.309
 30
0.0
 11
175.368999
 21
81.309
 31
0.0
  0
ARC
  5
125
330
1F
100
AcDbEntity
  8
CSLAYER2
  6
CONTINUOUS
 62
     7
100
AcDbCircle
 10
176.869
 20
80.384
 30
0.0
 40
0.5
100
AcDbArc
 50
270.0
 51
360.0
  0
ARC
  5
126
330
1F
100
AcDbEntity
  8
CSLAYER2
  6
CONTINUOUS
 62
     7
100
AcDbCircle
 10
176.869
 20
86.384
 30
0.0
 40
0.5
100
AcDbArc
 50
0.0
 51
90.0
  0
LINE
  5
127
330
1F
100
AcDbEntity
  8
CSLAYER2
  6
CONTINUOUS
 62
     7
100
AcDbLine
 10
175.768998
 20
86.884
 30
0.0
 11
176.869
 21
86.884
 31
0.0
  0
LINE
  5
128
330
1F
100
AcDbEntity
  8
CSLAYER2
  6
CONTINUOUS
 62
     7
100
AcDbLine
 10
176.869
 20
79.884
 30
0.0
 11
175.768998
 21
79.884
 31
0.0
  0
LINE
  5
129
330
1F
100
AcDbEntity
  8
CSLAYER2
  6
CONTINUOUS
 62
     7
100
AcDbLine
 10
165.869
 20
86.884
 30
0.0
 11
175.368999
 21
86.884
 31
0.0
  0
LINE
  5
12A
330
1F
100
AcDbEntity
  8
CSLAYER2
  6
CONTINUOUS
 62
     7
100
AcDbLine
 10
175.368999
 20
79.884
 30
0.0
 11
165.869
 21
79.884
 31
0.0
  0
LINE
  5
12B
330
1F
100
AcDbEntity
  8
CSLAYER2
  6
CONTINUOUS
 62
     4
100
AcDbLine
 10
131.869
 20
73.671302
 30
0.0
 11
138.456302
 21
67.084
 31
0.0
  0
LINE
  5
12C
330
1F
100
AcDbEntity
  8
CSLAYER2
  6
CONTINUOUS
 62
     4
100
AcDbLine
 10
141.283719
 20
86.884
 30
0.0
 11
152.369
 21
75.798719
 31
0.0
  0
LINE
  5
12D
330
1F
100
AcDbEntity
  8
CSLAYER2
  6
CONTINUOUS
 62
     4
100
AcDbLine
 10
131.869
 20
84.98501
 30
0.0
 11
149.77001
 21
67.084
 31
0.0
  0
LINE
  5
12E
330
1F
100
AcDbEntity
  8
CSLAYER2
  6
CONTINUOUS
 62
     4
100
AcDbLine
 10
132.798437
 20
86.884
 30
0.0
 11
152.233719
 21
67.448719
 31
0.0
  0
LINE
  5
12F
330
1F
100
AcDbEntity
  8
CSLAYER2
  6
CONTINUOUS
 62
     4
100
AcDbLine
 10
135.626864
 20
86.884
 30
0.0
 11
152.369
 21
70.141864
 31
0.0
  0
LINE
  5
130
330
1F
100
AcDbEntity
  8
CSLAYER2
  6
CONTINUOUS
 62
     4
100
AcDbLine
 10
131.869
 20
84.353553
 30
0.0
 11
134.399447
 21
86.884
 31
0.0
  0
LINE
  5
131
330
1F
100
AcDbEntity
  8
CSLAYER2
  6
CONTINUOUS
 62
     4
100
AcDbLine
 10
131.869
 20
81.525125
 30
0.0
 11
137.227875
 21
86.884
 31
0.0
  0
LINE
  5
132
330
1F
100
AcDbEntity
  8
CSLAYER2
  6
CONTINUOUS
 62
     4
100
AcDbLine
 10
131.869
 20
78.696698
 30
0.0
 11
140.056302
 21
86.884
 31
0.0
  0
LINE
  5
133
330
1F
100
AcDbEntity
  8
CSLAYER2
  6
CONTINUOUS
 62
     7
100
AcDbLine
 10
132.369
 20
86.884
 30
0.0
 11
151.869
 21
86.884
 31
0.0
  0
LINE
  5
134
330
1F
100
AcDbEntity
  8
CSLAYER2
  6
CONTINUOUS
 62
     4
100
AcDbLine
 10
131.869
 20
75.868271
 30
0.0
 11
142.884729
 21
86.884
 31
0.0
  0
LINE
  5
135
330
1F
100
AcDbEntity
  8
CSLAYER2
  6
CONTINUOUS
 62
     4
100
AcDbLine
 10
131.869
 20
73.039844
 30
0.0
 11
145.713156
 21
86.884
 31
0.0
  0
LINE
  5
136
330
1F
100
AcDbEntity
  8
CSLAYER2
  6
CONTINUOUS
 62
     4
100
AcDbLine
 10
131.869
 20
70.211417
 30
0.0
 11
148.541583
 21
86.884
 31
0.0
  0
LINE
  5
137
330
1F
100
AcDbEntity
  8
CSLAYER2
  6
CONTINUOUS
 62
     4
100
AcDbLine
 10
149.769
 20
86.884
 30
0.0
 11
152.369
 21
84.284
 31
0.0
  0
LINE
  5
138
330
1F
100
AcDbEntity
  8
CSLAYER2
  6
CONTINUOUS
 62
     4
100
AcDbLine
 10
131.969505
 20
67.483495
 30
0.0
 11
151.37001
 21
86.884
 31
0.0
  0
LINE
  5
139
330
1F
100
AcDbEntity
  8
CSLAYER2
  6
CONTINUOUS
 62
     4
100
AcDbLine
 10
134.398437
 20
67.084
 30
0.0
 11
152.369
 21
85.054563
 31
0.0
  0
LINE
  5
13A
330
1F
100
AcDbEntity
  8
CSLAYER2
  6
CONTINUOUS
 62
     4
100
AcDbLine
 10
151.369
 20
67.084
 30
0.0
 11
152.369
 21
68.084
 31
0.0
  0
LINE
  5
13B
330
1F
100
AcDbEntity
  8
CSLAYER2
  6
CONTINUOUS
 62
     4
100
AcDbLine
 10
137.226864
 20
67.084
 30
0.0
 11
152.369
 21
82.226136
 31
0.0
  0
LINE
  5
13C
330
1F
100
AcDbEntity
  8
CSLAYER2
  6
CONTINUOUS
 62
     4
100
AcDbLine
 10
140.055292
 20
67.084
 30
0.0
 11
152.369
 21
79.397708
 31
0.0
  0
LINE
  5
13D
330
1F
100
AcDbEntity
  8
CSLAYER2
  6
CONTINUOUS
 62
     4
100
AcDbLine
 10
142.883719
 20
67.084
 30
0.0
 11
152.369
 21
76.569281
 31
0.0
  0
LINE
  5
13E
330
1F
100
AcDbEntity
  8
CSLAYER2
  6
CONTINUOUS
 62
     4
100
AcDbLine
 10
145.712146
 20
67.084
 30
0.0
 11
152.369
 21
73.740854
 31
0.0
  0
LINE
  5
13F
330
1F
100
AcDbEntity
  8
CSLAYER2
  6
CONTINUOUS
 62
     4
100
AcDbLine
 10
148.540573
 20
67.084
 30
0.0
 11
152.369
 21
70.912427
 31
0.0
  0
LINE
  5
140
330
1F
100
AcDbEntity
  8
CSLAYER2
  6
CONTINUOUS
 62
     4
100
AcDbLine
 10
138.455292
 20
86.884
 30
0.0
 11
152.369
 21
72.970292
 31
0.0
  0
INSERT
  5
144
330
1F
100
AcDbEntity
  8
0
100
AcDbBlockReference
  2
BLKF013
 10
0.0
 20
0.0
 30
0.0
  0
INSERT
  5
151
330
1F
100
AcDbEntity
  8
0
100
AcDbBlockReference
  2
BLKF014
 10
0.0
 20
0.0
 30
0.0
  0
INSERT
  5
15F
330
1F
100
AcDbEntity
  8
0
100
AcDbBlockReference
  2
BLKF015
 10
0.0
 20
0.0
 30
0.0
  0
INSERT
  5
16B
330
1F
100
AcDbEntity
  8
0
100
AcDbBlockReference
  2
BLKF016
 10
0.0
 20
0.0
 30
0.0
  0
TEXT
  5
175
330
1F
100
AcDbEntity
  8
CSLAYER2
 62
     3
100
AcDbText
 10
72.268997
 20
20.0
 30
0.0
 40
4.0
  1
ＥＭ－３０６０ ＋ ＥＭＣＤ－３０００
 41
1.083478
  7
ED_VECTOR
 72
     5
 11
143.468996
 21
20.0
 31
0.0
100
AcDbText
  0
INSERT
  5
179
330
1F
100
AcDbEntity
  8
0
100
AcDbBlockReference
  2
BLKF017
 10
0.0
 20
0.0
 30
0.0
  0
ENDSEC
  0
SECTION
  2
OBJECTS
  0
DICTIONARY
  5
C
330
0
100
AcDbDictionary
  3
ACAD_GROUP
350
D
  3
ACAD_LAYOUT
350
1A
  3
ACAD_MLINESTYLE
350
17
  3
ACAD_PLOTSETTINGS
350
19
1001
ACAD
1000
TREAT_AS_HARD
1070
     0
  0
DICTIONARY
  5
D
102
{ACAD_REACTORS
330
C
102
}
330
C
100
AcDbDictionary
1001
ACAD
1000
TREAT_AS_HARD
1070
     0
  0
DICTIONARY
  5
1A
102
{ACAD_REACTORS
330
C
102
}
330
C
100
AcDbDictionary
1001
ACAD
1000
TREAT_AS_HARD
1070
     0
  0
DICTIONARY
  5
17
102
{ACAD_REACTORS
330
C
102
}
330
C
100
AcDbDictionary
  3
STANDARD
350
18
1001
ACAD
1000
TREAT_AS_HARD
1070
     0
  0
DICTIONARY
  5
19
102
{ACAD_REACTORS
330
C
102
}
330
C
100
AcDbDictionary
1001
ACAD
1000
TREAT_AS_HARD
1070
     0
  0
MLINESTYLE
  5
18
102
{ACAD_REACTORS
330
17
102
}
330
17
100
AcDbMlineStyle
  2
Standard
 70
     0
  3

 62
   256
 51
90.0
 52
90.0
 71
     2
 49
0.5
 62
   256
  6
BYLAYER
 49
-0.5
 62
   256
  6
BYLAYER
  0
ENDSEC
  0
EOF
